ISO-10303-21;
HEADER;
/****************************************************************
 * Generated by software with PDE/Lib inside                    *
 * PDElib Version 4.0, created Wed Jun 15 17:58:53 EDT 2005     *
 * International Technegroup Inc. (www.iti-oh.com)              *
 ****************************************************************/
FILE_DESCRIPTION((''),'2;1');
FILE_NAME('I:\\Daten\\POOL\\CI\\Technische Zeichnungen\\3D Daten als STP\\Anschlussteile\\Schlauchanschluss\\Schlauchanschluss_M5_Gerade fuer 6er Schlauch_A26003906.stp','2006-10-26T07:56:30',('ScheitB'),(''),'Autodesk Inventor 10','Autodesk Inventor 10','');
FILE_SCHEMA(('AUTOMOTIVE_DESIGN { 1 0 10303 214 1 1 1 1 }'));
ENDSEC;
DATA;
#5=APPLICATION_CONTEXT('automotive design');
#6=APPLICATION_PROTOCOL_DEFINITION('Draft International Standard','automotive_design',1998,#5);
#7=PRODUCT_CONTEXT('None',#5,'mechanical');
#8=PRODUCT('angea24a','angea24a','None',(#7));
#9=PRODUCT_RELATED_PRODUCT_CATEGORY('part','description',(#8));
#10=PRODUCT_DEFINITION_FORMATION('None','None',#8);
#11=PRODUCT_DEFINITION_CONTEXT('part definition',#5,'design');
#12=PRODUCT_DEFINITION('None','None',#10,#11);
#18=(NAMED_UNIT(*)PLANE_ANGLE_UNIT()SI_UNIT($,.RADIAN.));
#19=DIMENSIONAL_EXPONENTS(0.0,0.0,0.0,0.0,0.0,0.0,0.0);
#20=PLANE_ANGLE_MEASURE_WITH_UNIT(PLANE_ANGLE_MEASURE(0.017453292500000),#18);
#24=(CONVERSION_BASED_UNIT('DEGREE',#20)NAMED_UNIT(#19)PLANE_ANGLE_UNIT());
#28=(NAMED_UNIT(*)SI_UNIT($,.STERADIAN.)SOLID_ANGLE_UNIT());
#32=(LENGTH_UNIT()NAMED_UNIT(*)SI_UNIT(.MILLI.,.METRE.));
#34=UNCERTAINTY_MEASURE_WITH_UNIT(LENGTH_MEASURE(0.010000000000000),#32,'DISTANCE_ACCURACY_VALUE','');
#36=(GEOMETRIC_REPRESENTATION_CONTEXT(3)GLOBAL_UNCERTAINTY_ASSIGNED_CONTEXT((#34))GLOBAL_UNIT_ASSIGNED_CONTEXT((#24,#28,#32))REPRESENTATION_CONTEXT('None','None'));
#37=AXIS2_PLACEMENT_3D('',#38,#39,#40);
#38=CARTESIAN_POINT('',(0.0,0.0,0.0));
#39=DIRECTION('',(0.0,0.0,1.0));
#40=DIRECTION('',(1.0,0.0,0.0));
#41=SHAPE_REPRESENTATION('',(#37),#36);
#42=PRODUCT_DEFINITION_SHAPE('','',#12);
#43=SHAPE_DEFINITION_REPRESENTATION(#42,#41);
#44=CARTESIAN_POINT('',(0.0,21.399999999999999,0.0));
#45=DIRECTION('',(0.0,-1.0,0.0));
#46=DIRECTION('',(-1.0,0.0,0.0));
#47=AXIS2_PLACEMENT_3D('',#44,#45,#46);
#48=CYLINDRICAL_SURFACE('',#47,3.000000000000000);
#49=CARTESIAN_POINT('',(3.000000000000000,4.699999999999998,-3.673819E-016));
#50=VERTEX_POINT('',#49);
#51=CARTESIAN_POINT('',(0.0,4.699999999999998,0.0));
#52=DIRECTION('',(0.0,1.0,0.0));
#53=DIRECTION('',(-1.0,0.0,0.0));
#54=AXIS2_PLACEMENT_3D('',#51,#52,#53);
#55=CIRCLE('',#54,3.000000000000000);
#56=EDGE_CURVE('',#50,#50,#55,.T.);
#57=ORIENTED_EDGE('',*,*,#56,.F.);
#58=EDGE_LOOP('',(#57));
#59=FACE_OUTER_BOUND('',#58,.T.);
#60=CARTESIAN_POINT('',(3.000000000000000,21.399999999999999,-3.673819E-016));
#61=VERTEX_POINT('',#60);
#62=CARTESIAN_POINT('',(0.0,21.399999999999999,0.0));
#63=DIRECTION('',(0.0,-1.0,0.0));
#64=DIRECTION('',(-1.0,0.0,0.0));
#65=AXIS2_PLACEMENT_3D('',#62,#63,#64);
#66=CIRCLE('',#65,3.000000000000000);
#67=EDGE_CURVE('',#61,#61,#66,.T.);
#68=ORIENTED_EDGE('',*,*,#67,.F.);
#69=EDGE_LOOP('',(#68));
#70=FACE_BOUND('',#69,.T.);
#71=ADVANCED_FACE('',(#59,#70),#48,.F.);
#72=CARTESIAN_POINT('',(0.0,4.699999999999998,0.0));
#73=DIRECTION('',(0.0,-1.0,0.0));
#74=DIRECTION('',(0.0,0.0,-1.0));
#75=AXIS2_PLACEMENT_3D('',#72,#73,#74);
#76=PLANE('',#75);
#77=ORIENTED_EDGE('',*,*,#56,.T.);
#78=EDGE_LOOP('',(#77));
#79=FACE_OUTER_BOUND('',#78,.T.);
#80=CARTESIAN_POINT('',(-1.250000000000000,4.700000000000006,0.721687836487033));
#81=VERTEX_POINT('',#80);
#82=CARTESIAN_POINT('',(4.059099E-016,4.700000000000006,1.443375672974065));
#83=VERTEX_POINT('',#82);
#84=CARTESIAN_POINT('',(-1.250000000000000,4.700000000000006,0.721687836487033));
#85=DIRECTION('',(0.866025403784439,0.0,0.500000000000000));
#86=VECTOR('',#85,1.443375672974065);
#87=LINE('',#84,#86);
#88=EDGE_CURVE('',#81,#83,#87,.T.);
#89=ORIENTED_EDGE('',*,*,#88,.F.);
#90=CARTESIAN_POINT('',(-1.250000000000000,4.700000000000006,-0.721687836487033));
#91=VERTEX_POINT('',#90);
#92=CARTESIAN_POINT('',(-1.250000000000000,4.700000000000006,-0.721687836487033));
#93=DIRECTION('',(0.0,0.0,1.0));
#94=VECTOR('',#93,1.443375672974065);
#95=LINE('',#92,#94);
#96=EDGE_CURVE('',#91,#81,#95,.T.);
#97=ORIENTED_EDGE('',*,*,#96,.F.);
#98=CARTESIAN_POINT('',(-5.226079E-018,4.700000000000006,-1.443375672974065));
#99=VERTEX_POINT('',#98);
#100=CARTESIAN_POINT('',(-5.226079E-018,4.700000000000006,-1.443375672974065));
#101=DIRECTION('',(-0.866025403784439,0.0,0.500000000000000));
#102=VECTOR('',#101,1.443375672974065);
#103=LINE('',#100,#102);
#104=EDGE_CURVE('',#99,#91,#103,.T.);
#105=ORIENTED_EDGE('',*,*,#104,.F.);
#106=CARTESIAN_POINT('',(1.250000000000000,4.700000000000006,-0.721687836487033));
#107=VERTEX_POINT('',#106);
#108=CARTESIAN_POINT('',(1.250000000000000,4.700000000000006,-0.721687836487033));
#109=DIRECTION('',(-0.866025403784439,0.0,-0.500000000000000));
#110=VECTOR('',#109,1.443375672974065);
#111=LINE('',#108,#110);
#112=EDGE_CURVE('',#107,#99,#111,.T.);
#113=ORIENTED_EDGE('',*,*,#112,.F.);
#114=CARTESIAN_POINT('',(1.250000000000000,4.700000000000006,0.721687836487032));
#115=VERTEX_POINT('',#114);
#116=CARTESIAN_POINT('',(1.250000000000000,4.700000000000006,0.721687836487032));
#117=DIRECTION('',(0.0,0.0,-1.0));
#118=VECTOR('',#117,1.443375672974065);
#119=LINE('',#116,#118);
#120=EDGE_CURVE('',#115,#107,#119,.T.);
#121=ORIENTED_EDGE('',*,*,#120,.F.);
#122=CARTESIAN_POINT('',(4.059099E-016,4.700000000000006,1.443375672974065));
#123=DIRECTION('',(0.866025403784439,0.0,-0.500000000000000));
#124=VECTOR('',#123,1.443375672974065);
#125=LINE('',#122,#124);
#126=EDGE_CURVE('',#83,#115,#125,.T.);
#127=ORIENTED_EDGE('',*,*,#126,.F.);
#128=EDGE_LOOP('',(#89,#97,#105,#113,#121,#127));
#129=FACE_BOUND('',#128,.T.);
#130=ADVANCED_FACE('',(#79,#129),#76,.F.);
#131=CARTESIAN_POINT('',(1.250000000000000,21.399999999999999,0.721687836487032));
#132=DIRECTION('',(1.0,0.0,0.0));
#133=DIRECTION('',(0.0,0.0,-1.0));
#134=AXIS2_PLACEMENT_3D('',#131,#132,#133);
#135=PLANE('',#134);
#136=ORIENTED_EDGE('',*,*,#120,.T.);
#137=CARTESIAN_POINT('',(1.250000000000000,2.200000000000006,-0.721687836487033));
#138=VERTEX_POINT('',#137);
#139=CARTESIAN_POINT('',(1.250000000000000,4.700000000000006,-0.721687836487033));
#140=DIRECTION('',(0.0,-1.0,0.0));
#141=VECTOR('',#140,2.500000000000000);
#142=LINE('',#139,#141);
#143=EDGE_CURVE('',#107,#138,#142,.T.);
#144=ORIENTED_EDGE('',*,*,#143,.T.);
#145=CARTESIAN_POINT('',(1.250000000000000,2.200000000000006,0.721687836487032));
#146=VERTEX_POINT('',#145);
#147=CARTESIAN_POINT('',(1.250000000000000,2.200000000000006,0.721687836487032));
#148=DIRECTION('',(0.0,0.0,-1.0));
#149=VECTOR('',#148,1.443375672974065);
#150=LINE('',#147,#149);
#151=EDGE_CURVE('',#146,#138,#150,.T.);
#152=ORIENTED_EDGE('',*,*,#151,.F.);
#153=CARTESIAN_POINT('',(1.250000000000000,4.700000000000006,0.721687836487032));
#154=DIRECTION('',(0.0,-1.0,0.0));
#155=VECTOR('',#154,2.500000000000000);
#156=LINE('',#153,#155);
#157=EDGE_CURVE('',#115,#146,#156,.T.);
#158=ORIENTED_EDGE('',*,*,#157,.F.);
#159=EDGE_LOOP('',(#136,#144,#152,#158));
#160=FACE_OUTER_BOUND('',#159,.T.);
#161=ADVANCED_FACE('',(#160),#135,.F.);
#162=CARTESIAN_POINT('',(1.250000000000000,21.399999999999999,-0.721687836487033));
#163=DIRECTION('',(0.500000000000000,0.0,-0.866025403784439));
#164=DIRECTION('',(-0.866025403784439,0.0,-0.500000000000000));
#165=AXIS2_PLACEMENT_3D('',#162,#163,#164);
#166=PLANE('',#165);
#167=ORIENTED_EDGE('',*,*,#112,.T.);
#168=CARTESIAN_POINT('',(-5.226079E-018,2.200000000000006,-1.443375672974065));
#169=VERTEX_POINT('',#168);
#170=CARTESIAN_POINT('',(-5.226079E-018,4.700000000000006,-1.443375672974065));
#171=DIRECTION('',(0.0,-1.0,0.0));
#172=VECTOR('',#171,2.500000000000000);
#173=LINE('',#170,#172);
#174=EDGE_CURVE('',#99,#169,#173,.T.);
#175=ORIENTED_EDGE('',*,*,#174,.T.);
#176=CARTESIAN_POINT('',(1.250000000000000,2.200000000000006,-0.721687836487033));
#177=DIRECTION('',(-0.866025403784439,0.0,-0.500000000000000));
#178=VECTOR('',#177,1.443375672974065);
#179=LINE('',#176,#178);
#180=EDGE_CURVE('',#138,#169,#179,.T.);
#181=ORIENTED_EDGE('',*,*,#180,.F.);
#182=ORIENTED_EDGE('',*,*,#143,.F.);
#183=EDGE_LOOP('',(#167,#175,#181,#182));
#184=FACE_OUTER_BOUND('',#183,.T.);
#185=ADVANCED_FACE('',(#184),#166,.F.);
#186=CARTESIAN_POINT('',(-5.226079E-018,21.399999999999999,-1.443375672974065));
#187=DIRECTION('',(-0.500000000000000,0.0,-0.866025403784439));
#188=DIRECTION('',(-0.866025403784439,0.0,0.500000000000000));
#189=AXIS2_PLACEMENT_3D('',#186,#187,#188);
#190=PLANE('',#189);
#191=ORIENTED_EDGE('',*,*,#104,.T.);
#192=CARTESIAN_POINT('',(-1.250000000000000,2.200000000000006,-0.721687836487033));
#193=VERTEX_POINT('',#192);
#194=CARTESIAN_POINT('',(-1.250000000000000,4.700000000000006,-0.721687836487033));
#195=DIRECTION('',(0.0,-1.0,0.0));
#196=VECTOR('',#195,2.500000000000000);
#197=LINE('',#194,#196);
#198=EDGE_CURVE('',#91,#193,#197,.T.);
#199=ORIENTED_EDGE('',*,*,#198,.T.);
#200=CARTESIAN_POINT('',(-5.226079E-018,2.200000000000006,-1.443375672974065));
#201=DIRECTION('',(-0.866025403784439,0.0,0.500000000000000));
#202=VECTOR('',#201,1.443375672974065);
#203=LINE('',#200,#202);
#204=EDGE_CURVE('',#169,#193,#203,.T.);
#205=ORIENTED_EDGE('',*,*,#204,.F.);
#206=ORIENTED_EDGE('',*,*,#174,.F.);
#207=EDGE_LOOP('',(#191,#199,#205,#206));
#208=FACE_OUTER_BOUND('',#207,.T.);
#209=ADVANCED_FACE('',(#208),#190,.F.);
#210=CARTESIAN_POINT('',(0.0,-5.199999999999998,0.0));
#211=DIRECTION('',(0.0,1.0,0.0));
#212=DIRECTION('',(-1.0,0.0,0.0));
#213=AXIS2_PLACEMENT_3D('',#210,#211,#212);
#214=CYLINDRICAL_SURFACE('',#213,1.225000000000000);
#215=CARTESIAN_POINT('',(1.225000000000000,2.200000000000006,1.500143E-016));
#216=VERTEX_POINT('',#215);
#217=CARTESIAN_POINT('',(0.0,2.200000000000006,0.0));
#218=DIRECTION('',(0.0,-1.0,0.0));
#219=DIRECTION('',(-1.0,0.0,0.0));
#220=AXIS2_PLACEMENT_3D('',#217,#218,#219);
#221=CIRCLE('',#220,1.225000000000000);
#222=EDGE_CURVE('',#216,#216,#221,.T.);
#223=ORIENTED_EDGE('',*,*,#222,.F.);
#224=EDGE_LOOP('',(#223));
#225=FACE_OUTER_BOUND('',#224,.T.);
#226=CARTESIAN_POINT('',(1.225000000000000,-5.199999999999998,1.500143E-016));
#227=VERTEX_POINT('',#226);
#228=CARTESIAN_POINT('',(0.0,-5.199999999999998,0.0));
#229=DIRECTION('',(0.0,1.0,0.0));
#230=DIRECTION('',(-1.0,0.0,0.0));
#231=AXIS2_PLACEMENT_3D('',#228,#229,#230);
#232=CIRCLE('',#231,1.225000000000000);
#233=EDGE_CURVE('',#227,#227,#232,.T.);
#234=ORIENTED_EDGE('',*,*,#233,.F.);
#235=EDGE_LOOP('',(#234));
#236=FACE_BOUND('',#235,.T.);
#237=ADVANCED_FACE('',(#225,#236),#214,.F.);
#238=CARTESIAN_POINT('',(-1.250000000000000,21.399999999999999,1.387779E-016));
#239=DIRECTION('',(-1.0,0.0,0.0));
#240=DIRECTION('',(0.0,0.0,1.0));
#241=AXIS2_PLACEMENT_3D('',#238,#239,#240);
#242=PLANE('',#241);
#243=ORIENTED_EDGE('',*,*,#96,.T.);
#244=CARTESIAN_POINT('',(-1.250000000000000,2.200000000000006,0.721687836487033));
#245=VERTEX_POINT('',#244);
#246=CARTESIAN_POINT('',(-1.250000000000000,4.700000000000006,0.721687836487033));
#247=DIRECTION('',(0.0,-1.0,0.0));
#248=VECTOR('',#247,2.500000000000000);
#249=LINE('',#246,#248);
#250=EDGE_CURVE('',#81,#245,#249,.T.);
#251=ORIENTED_EDGE('',*,*,#250,.T.);
#252=CARTESIAN_POINT('',(-1.250000000000000,2.200000000000006,-0.721687836487033));
#253=DIRECTION('',(0.0,0.0,1.0));
#254=VECTOR('',#253,1.443375672974065);
#255=LINE('',#252,#254);
#256=EDGE_CURVE('',#193,#245,#255,.T.);
#257=ORIENTED_EDGE('',*,*,#256,.F.);
#258=ORIENTED_EDGE('',*,*,#198,.F.);
#259=EDGE_LOOP('',(#243,#251,#257,#258));
#260=FACE_OUTER_BOUND('',#259,.T.);
#261=ADVANCED_FACE('',(#260),#242,.F.);
#262=CARTESIAN_POINT('',(-1.250000000000000,21.399999999999999,0.721687836487033));
#263=DIRECTION('',(-0.500000000000000,0.0,0.866025403784439));
#264=DIRECTION('',(0.866025403784439,0.0,0.500000000000000));
#265=AXIS2_PLACEMENT_3D('',#262,#263,#264);
#266=PLANE('',#265);
#267=ORIENTED_EDGE('',*,*,#88,.T.);
#268=CARTESIAN_POINT('',(4.059099E-016,2.200000000000006,1.443375672974065));
#269=VERTEX_POINT('',#268);
#270=CARTESIAN_POINT('',(4.059099E-016,4.700000000000006,1.443375672974065));
#271=DIRECTION('',(0.0,-1.0,0.0));
#272=VECTOR('',#271,2.500000000000000);
#273=LINE('',#270,#272);
#274=EDGE_CURVE('',#83,#269,#273,.T.);
#275=ORIENTED_EDGE('',*,*,#274,.T.);
#276=CARTESIAN_POINT('',(-1.250000000000000,2.200000000000006,0.721687836487033));
#277=DIRECTION('',(0.866025403784439,0.0,0.500000000000000));
#278=VECTOR('',#277,1.443375672974065);
#279=LINE('',#276,#278);
#280=EDGE_CURVE('',#245,#269,#279,.T.);
#281=ORIENTED_EDGE('',*,*,#280,.F.);
#282=ORIENTED_EDGE('',*,*,#250,.F.);
#283=EDGE_LOOP('',(#267,#275,#281,#282));
#284=FACE_OUTER_BOUND('',#283,.T.);
#285=ADVANCED_FACE('',(#284),#266,.F.);
#286=CARTESIAN_POINT('',(4.059099E-016,21.399999999999999,1.443375672974065));
#287=DIRECTION('',(0.500000000000000,0.0,0.866025403784439));
#288=DIRECTION('',(0.866025403784439,0.0,-0.500000000000000));
#289=AXIS2_PLACEMENT_3D('',#286,#287,#288);
#290=PLANE('',#289);
#291=ORIENTED_EDGE('',*,*,#126,.T.);
#292=ORIENTED_EDGE('',*,*,#157,.T.);
#293=CARTESIAN_POINT('',(4.059099E-016,2.200000000000006,1.443375672974065));
#294=DIRECTION('',(0.866025403784439,0.0,-0.500000000000000));
#295=VECTOR('',#294,1.443375672974065);
#296=LINE('',#293,#295);
#297=EDGE_CURVE('',#269,#146,#296,.T.);
#298=ORIENTED_EDGE('',*,*,#297,.F.);
#299=ORIENTED_EDGE('',*,*,#274,.F.);
#300=EDGE_LOOP('',(#291,#292,#298,#299));
#301=FACE_OUTER_BOUND('',#300,.T.);
#302=ADVANCED_FACE('',(#301),#290,.F.);
#303=CARTESIAN_POINT('',(0.0,2.200000000000006,1.344411E-016));
#304=DIRECTION('',(0.0,1.0,0.0));
#305=DIRECTION('',(0.0,0.0,1.0));
#306=AXIS2_PLACEMENT_3D('',#303,#304,#305);
#307=PLANE('',#306);
#308=ORIENTED_EDGE('',*,*,#256,.T.);
#309=ORIENTED_EDGE('',*,*,#280,.T.);
#310=ORIENTED_EDGE('',*,*,#297,.T.);
#311=ORIENTED_EDGE('',*,*,#151,.T.);
#312=ORIENTED_EDGE('',*,*,#180,.T.);
#313=ORIENTED_EDGE('',*,*,#204,.T.);
#314=EDGE_LOOP('',(#308,#309,#310,#311,#312,#313));
#315=FACE_OUTER_BOUND('',#314,.T.);
#316=ORIENTED_EDGE('',*,*,#222,.T.);
#317=EDGE_LOOP('',(#316));
#318=FACE_BOUND('',#317,.T.);
#319=ADVANCED_FACE('',(#315,#318),#307,.T.);
#320=CARTESIAN_POINT('',(0.0,-4.949999999999998,0.0));
#321=DIRECTION('',(0.0,1.0,0.0));
#322=DIRECTION('',(-1.0,0.0,0.0));
#323=AXIS2_PLACEMENT_3D('',#320,#321,#322);
#324=CONICAL_SURFACE('',#323,2.249999999999996,44.999999999999957);
#325=CARTESIAN_POINT('',(2.499999999999996,-4.699999999999997,3.061516E-016));
#326=VERTEX_POINT('',#325);
#327=CARTESIAN_POINT('',(0.0,-4.699999999999997,0.0));
#328=DIRECTION('',(0.0,-1.0,0.0));
#329=DIRECTION('',(-1.0,0.0,0.0));
#330=AXIS2_PLACEMENT_3D('',#327,#328,#329);
#331=CIRCLE('',#330,2.499999999999996);
#332=EDGE_CURVE('',#326,#326,#331,.T.);
#333=ORIENTED_EDGE('',*,*,#332,.T.);
#334=EDGE_LOOP('',(#333));
#335=FACE_OUTER_BOUND('',#334,.T.);
#336=CARTESIAN_POINT('',(1.999999999999996,-5.199999999999998,-2.449213E-016));
#337=VERTEX_POINT('',#336);
#338=CARTESIAN_POINT('',(0.0,-5.199999999999998,0.0));
#339=DIRECTION('',(0.0,1.0,0.0));
#340=DIRECTION('',(-1.0,0.0,0.0));
#341=AXIS2_PLACEMENT_3D('',#338,#339,#340);
#342=CIRCLE('',#341,1.999999999999996);
#343=EDGE_CURVE('',#337,#337,#342,.T.);
#344=ORIENTED_EDGE('',*,*,#343,.T.);
#345=EDGE_LOOP('',(#344));
#346=FACE_BOUND('',#345,.T.);
#347=ADVANCED_FACE('',(#335,#346),#324,.T.);
#348=CARTESIAN_POINT('',(0.0,-2.699999999999998,0.0));
#349=DIRECTION('',(0.0,-1.0,0.0));
#350=DIRECTION('',(1.0,0.0,0.0));
#351=AXIS2_PLACEMENT_3D('',#348,#349,#350);
#352=CYLINDRICAL_SURFACE('',#351,2.499999999999996);
#353=CARTESIAN_POINT('',(2.499999999999998,-0.200000000000000,0.0));
#354=VERTEX_POINT('',#353);
#355=CARTESIAN_POINT('',(0.0,-0.200000000000000,0.0));
#356=DIRECTION('',(0.0,-1.0,0.0));
#357=DIRECTION('',(1.0,0.0,0.0));
#358=AXIS2_PLACEMENT_3D('',#355,#356,#357);
#359=CIRCLE('',#358,2.499999999999998);
#360=EDGE_CURVE('',#354,#354,#359,.T.);
#361=ORIENTED_EDGE('',*,*,#360,.T.);
#362=EDGE_LOOP('',(#361));
#363=FACE_OUTER_BOUND('',#362,.T.);
#364=ORIENTED_EDGE('',*,*,#332,.F.);
#365=EDGE_LOOP('',(#364));
#366=FACE_BOUND('',#365,.T.);
#367=ADVANCED_FACE('',(#363,#366),#352,.T.);
#368=CARTESIAN_POINT('',(1.249999999999998,-5.199999999999998,0.0));
#369=DIRECTION('',(0.0,-1.0,0.0));
#370=DIRECTION('',(0.0,0.0,-1.0));
#371=AXIS2_PLACEMENT_3D('',#368,#369,#370);
#372=PLANE('',#371);
#373=ORIENTED_EDGE('',*,*,#343,.F.);
#374=EDGE_LOOP('',(#373));
#375=FACE_OUTER_BOUND('',#374,.T.);
#376=ORIENTED_EDGE('',*,*,#233,.T.);
#377=EDGE_LOOP('',(#376));
#378=FACE_BOUND('',#377,.T.);
#379=ADVANCED_FACE('',(#375,#378),#372,.T.);
#380=CARTESIAN_POINT('',(0.0,0.300000000000001,0.0));
#381=DIRECTION('',(0.0,-1.0,0.0));
#382=DIRECTION('',(0.0,0.0,-1.0));
#383=AXIS2_PLACEMENT_3D('',#380,#381,#382);
#384=TOROIDAL_SURFACE('',#383,2.775000000000000,0.500000000000000);
#385=CARTESIAN_POINT('',(2.775000000000000,-0.199999999999999,0.0));
#386=VERTEX_POINT('',#385);
#387=CARTESIAN_POINT('',(0.0,-0.199999999999999,0.0));
#388=DIRECTION('',(0.0,-1.0,0.0));
#389=DIRECTION('',(1.0,0.0,0.0));
#390=AXIS2_PLACEMENT_3D('',#387,#388,#389);
#391=CIRCLE('',#390,2.775000000000000);
#392=EDGE_CURVE('',#386,#386,#391,.T.);
#393=ORIENTED_EDGE('',*,*,#392,.F.);
#394=EDGE_LOOP('',(#393));
#395=FACE_OUTER_BOUND('',#394,.T.);
#396=CARTESIAN_POINT('',(3.175000000000000,9.020562E-016,0.0));
#397=VERTEX_POINT('',#396);
#398=CARTESIAN_POINT('',(0.0,9.020562E-016,0.0));
#399=DIRECTION('',(0.0,-1.0,0.0));
#400=DIRECTION('',(1.0,0.0,0.0));
#401=AXIS2_PLACEMENT_3D('',#398,#399,#400);
#402=CIRCLE('',#401,3.175000000000000);
#403=EDGE_CURVE('',#397,#397,#402,.T.);
#404=ORIENTED_EDGE('',*,*,#403,.T.);
#405=EDGE_LOOP('',(#404));
#406=FACE_BOUND('',#405,.T.);
#407=ADVANCED_FACE('',(#395,#406),#384,.T.);
#408=CARTESIAN_POINT('',(2.637499999999999,-0.199999999999999,0.0));
#409=DIRECTION('',(0.0,-1.0,0.0));
#410=DIRECTION('',(0.0,0.0,-1.0));
#411=AXIS2_PLACEMENT_3D('',#408,#409,#410);
#412=PLANE('',#411);
#413=ORIENTED_EDGE('',*,*,#392,.T.);
#414=EDGE_LOOP('',(#413));
#415=FACE_OUTER_BOUND('',#414,.T.);
#416=ORIENTED_EDGE('',*,*,#360,.F.);
#417=EDGE_LOOP('',(#416));
#418=FACE_BOUND('',#417,.T.);
#419=ADVANCED_FACE('',(#415,#418),#412,.T.);
#420=CARTESIAN_POINT('',(1.950000000000000,21.399999999999999,0.0));
#421=DIRECTION('',(0.0,1.0,0.0));
#422=DIRECTION('',(0.0,0.0,1.0));
#423=AXIS2_PLACEMENT_3D('',#420,#421,#422);
#424=PLANE('',#423);
#425=CARTESIAN_POINT('',(3.900000000000000,21.399999999999999,0.0));
#426=VERTEX_POINT('',#425);
#427=CARTESIAN_POINT('',(0.0,21.399999999999999,0.0));
#428=DIRECTION('',(0.0,-1.0,0.0));
#429=DIRECTION('',(1.0,0.0,0.0));
#430=AXIS2_PLACEMENT_3D('',#427,#428,#429);
#431=CIRCLE('',#430,3.900000000000000);
#432=EDGE_CURVE('',#426,#426,#431,.T.);
#433=ORIENTED_EDGE('',*,*,#432,.F.);
#434=EDGE_LOOP('',(#433));
#435=FACE_OUTER_BOUND('',#434,.T.);
#436=ORIENTED_EDGE('',*,*,#67,.T.);
#437=EDGE_LOOP('',(#436));
#438=FACE_BOUND('',#437,.T.);
#439=ADVANCED_FACE('',(#435,#438),#424,.T.);
#440=CARTESIAN_POINT('',(0.0,17.648529411764702,0.0));
#441=DIRECTION('',(0.0,0.0,1.0));
#442=DIRECTION('',(1.0,0.0,0.0));
#443=AXIS2_PLACEMENT_3D('',#440,#441,#442);
#444=SPHERICAL_SURFACE('',#443,5.411426020412224);
#445=CARTESIAN_POINT('',(5.400000000000000,18.0,0.0));
#446=VERTEX_POINT('',#445);
#447=CARTESIAN_POINT('',(0.0,18.0,0.0));
#448=DIRECTION('',(0.0,-1.0,0.0));
#449=DIRECTION('',(1.0,0.0,0.0));
#450=AXIS2_PLACEMENT_3D('',#447,#448,#449);
#451=CIRCLE('',#450,5.400000000000000);
#452=EDGE_CURVE('',#446,#446,#451,.T.);
#453=ORIENTED_EDGE('',*,*,#452,.F.);
#454=EDGE_LOOP('',(#453));
#455=FACE_OUTER_BOUND('',#454,.T.);
#456=ORIENTED_EDGE('',*,*,#432,.T.);
#457=EDGE_LOOP('',(#456));
#458=FACE_BOUND('',#457,.T.);
#459=ADVANCED_FACE('',(#455,#458),#444,.T.);
#460=CARTESIAN_POINT('',(4.674999999999999,18.0,0.0));
#461=DIRECTION('',(0.0,-1.0,0.0));
#462=DIRECTION('',(0.0,0.0,-1.0));
#463=AXIS2_PLACEMENT_3D('',#460,#461,#462);
#464=PLANE('',#463);
#465=ORIENTED_EDGE('',*,*,#452,.T.);
#466=EDGE_LOOP('',(#465));
#467=FACE_OUTER_BOUND('',#466,.T.);
#468=CARTESIAN_POINT('',(3.949999999999997,18.0,0.0));
#469=VERTEX_POINT('',#468);
#470=CARTESIAN_POINT('',(0.0,18.0,0.0));
#471=DIRECTION('',(0.0,-1.0,0.0));
#472=DIRECTION('',(1.0,0.0,0.0));
#473=AXIS2_PLACEMENT_3D('',#470,#471,#472);
#474=CIRCLE('',#473,3.949999999999997);
#475=EDGE_CURVE('',#469,#469,#474,.T.);
#476=ORIENTED_EDGE('',*,*,#475,.F.);
#477=EDGE_LOOP('',(#476));
#478=FACE_BOUND('',#477,.T.);
#479=ADVANCED_FACE('',(#467,#478),#464,.T.);
#480=CARTESIAN_POINT('',(0.0,17.349999999999998,0.0));
#481=DIRECTION('',(0.0,-1.0,0.0));
#482=DIRECTION('',(1.0,0.0,0.0));
#483=AXIS2_PLACEMENT_3D('',#480,#481,#482);
#484=CYLINDRICAL_SURFACE('',#483,3.949999999999997);
#485=CARTESIAN_POINT('',(3.949999999999998,16.699999999999999,0.0));
#486=VERTEX_POINT('',#485);
#487=CARTESIAN_POINT('',(0.0,16.699999999999999,0.0));
#488=DIRECTION('',(0.0,-1.0,0.0));
#489=DIRECTION('',(1.0,0.0,0.0));
#490=AXIS2_PLACEMENT_3D('',#487,#488,#489);
#491=CIRCLE('',#490,3.949999999999998);
#492=EDGE_CURVE('',#486,#486,#491,.T.);
#493=ORIENTED_EDGE('',*,*,#492,.F.);
#494=EDGE_LOOP('',(#493));
#495=FACE_OUTER_BOUND('',#494,.T.);
#496=ORIENTED_EDGE('',*,*,#475,.T.);
#497=EDGE_LOOP('',(#496));
#498=FACE_BOUND('',#497,.T.);
#499=ADVANCED_FACE('',(#495,#498),#484,.T.);
#500=CARTESIAN_POINT('',(4.037499999999995,16.699999999999999,0.0));
#501=DIRECTION('',(0.0,1.0,0.0));
#502=DIRECTION('',(0.0,0.0,1.0));
#503=AXIS2_PLACEMENT_3D('',#500,#501,#502);
#504=PLANE('',#503);
#505=CARTESIAN_POINT('',(4.124999999999993,16.699999999999999,0.0));
#506=VERTEX_POINT('',#505);
#507=CARTESIAN_POINT('',(0.0,16.699999999999999,0.0));
#508=DIRECTION('',(0.0,-1.0,0.0));
#509=DIRECTION('',(1.0,0.0,0.0));
#510=AXIS2_PLACEMENT_3D('',#507,#508,#509);
#511=CIRCLE('',#510,4.124999999999993);
#512=EDGE_CURVE('',#506,#506,#511,.T.);
#513=ORIENTED_EDGE('',*,*,#512,.F.);
#514=EDGE_LOOP('',(#513));
#515=FACE_OUTER_BOUND('',#514,.T.);
#516=ORIENTED_EDGE('',*,*,#492,.T.);
#517=EDGE_LOOP('',(#516));
#518=FACE_BOUND('',#517,.T.);
#519=ADVANCED_FACE('',(#515,#518),#504,.T.);
#520=CARTESIAN_POINT('',(0.0,16.192893218813452,0.0));
#521=DIRECTION('',(0.0,-1.0,0.0));
#522=DIRECTION('',(1.0,0.0,0.0));
#523=AXIS2_PLACEMENT_3D('',#520,#521,#522);
#524=CONICAL_SURFACE('',#523,4.632106781186542,45.000000000000028);
#525=CARTESIAN_POINT('',(5.139213562373090,15.685786437626902,0.0));
#526=VERTEX_POINT('',#525);
#527=CARTESIAN_POINT('',(0.0,15.685786437626902,0.0));
#528=DIRECTION('',(0.0,-1.0,0.0));
#529=DIRECTION('',(1.0,0.0,0.0));
#530=AXIS2_PLACEMENT_3D('',#527,#528,#529);
#531=CIRCLE('',#530,5.139213562373090);
#532=EDGE_CURVE('',#526,#526,#531,.T.);
#533=ORIENTED_EDGE('',*,*,#532,.F.);
#534=EDGE_LOOP('',(#533));
#535=FACE_OUTER_BOUND('',#534,.T.);
#536=ORIENTED_EDGE('',*,*,#512,.T.);
#537=EDGE_LOOP('',(#536));
#538=FACE_BOUND('',#537,.T.);
#539=ADVANCED_FACE('',(#535,#538),#524,.T.);
#540=CARTESIAN_POINT('',(0.0,14.271572875253806,0.0));
#541=DIRECTION('',(0.0,-1.0,0.0));
#542=DIRECTION('',(0.0,0.0,-1.0));
#543=AXIS2_PLACEMENT_3D('',#540,#541,#542);
#544=TOROIDAL_SURFACE('',#543,3.724999999999996,2.000000000000012);
#545=CARTESIAN_POINT('',(5.724999999999997,14.271572875253806,0.0));
#546=VERTEX_POINT('',#545);
#547=CARTESIAN_POINT('',(0.0,14.271572875253806,0.0));
#548=DIRECTION('',(0.0,-1.0,0.0));
#549=DIRECTION('',(1.0,0.0,0.0));
#550=AXIS2_PLACEMENT_3D('',#547,#548,#549);
#551=CIRCLE('',#550,5.724999999999997);
#552=EDGE_CURVE('',#546,#546,#551,.T.);
#553=ORIENTED_EDGE('',*,*,#552,.F.);
#554=EDGE_LOOP('',(#553));
#555=FACE_OUTER_BOUND('',#554,.T.);
#556=ORIENTED_EDGE('',*,*,#532,.T.);
#557=EDGE_LOOP('',(#556));
#558=FACE_BOUND('',#557,.T.);
#559=ADVANCED_FACE('',(#555,#558),#544,.T.);
#560=CARTESIAN_POINT('',(0.0,8.122204039419163,0.0));
#561=DIRECTION('',(0.0,-1.0,0.0));
#562=DIRECTION('',(1.0,0.0,0.0));
#563=AXIS2_PLACEMENT_3D('',#560,#561,#562);
#564=CYLINDRICAL_SURFACE('',#563,5.724999999999998);
#565=CARTESIAN_POINT('',(5.725000000000000,1.972835203584520,0.0));
#566=VERTEX_POINT('',#565);
#567=CARTESIAN_POINT('',(0.0,1.972835203584520,0.0));
#568=DIRECTION('',(0.0,-1.0,0.0));
#569=DIRECTION('',(1.0,0.0,0.0));
#570=AXIS2_PLACEMENT_3D('',#567,#568,#569);
#571=CIRCLE('',#570,5.725000000000000);
#572=EDGE_CURVE('',#566,#566,#571,.T.);
#573=ORIENTED_EDGE('',*,*,#572,.F.);
#574=EDGE_LOOP('',(#573));
#575=FACE_OUTER_BOUND('',#574,.T.);
#576=ORIENTED_EDGE('',*,*,#552,.T.);
#577=EDGE_LOOP('',(#576));
#578=FACE_BOUND('',#577,.T.);
#579=ADVANCED_FACE('',(#575,#578),#564,.T.);
#580=CARTESIAN_POINT('',(0.0,1.486417601792260,0.0));
#581=DIRECTION('',(0.0,1.0,0.0));
#582=DIRECTION('',(1.0,0.0,0.0));
#583=AXIS2_PLACEMENT_3D('',#580,#581,#582);
#584=CONICAL_SURFACE('',#583,4.882500000000000,59.999999999999979);
#585=CARTESIAN_POINT('',(4.040000000000002,1.0,0.0));
#586=VERTEX_POINT('',#585);
#587=CARTESIAN_POINT('',(0.0,1.0,0.0));
#588=DIRECTION('',(0.0,-1.0,0.0));
#589=DIRECTION('',(1.0,0.0,0.0));
#590=AXIS2_PLACEMENT_3D('',#587,#588,#589);
#591=CIRCLE('',#590,4.040000000000002);
#592=EDGE_CURVE('',#586,#586,#591,.T.);
#593=ORIENTED_EDGE('',*,*,#592,.F.);
#594=EDGE_LOOP('',(#593));
#595=FACE_OUTER_BOUND('',#594,.T.);
#596=ORIENTED_EDGE('',*,*,#572,.T.);
#597=EDGE_LOOP('',(#596));
#598=FACE_BOUND('',#597,.T.);
#599=ADVANCED_FACE('',(#595,#598),#584,.T.);
#600=CARTESIAN_POINT('',(0.0,0.500000000000000,0.0));
#601=DIRECTION('',(0.0,-1.0,0.0));
#602=DIRECTION('',(1.0,0.0,0.0));
#603=AXIS2_PLACEMENT_3D('',#600,#601,#602);
#604=CYLINDRICAL_SURFACE('',#603,4.040000000000000);
#605=CARTESIAN_POINT('',(4.039999999999999,0.0,0.0));
#606=VERTEX_POINT('',#605);
#607=CARTESIAN_POINT('',(0.0,0.0,0.0));
#608=DIRECTION('',(0.0,-1.0,0.0));
#609=DIRECTION('',(1.0,0.0,0.0));
#610=AXIS2_PLACEMENT_3D('',#607,#608,#609);
#611=CIRCLE('',#610,4.039999999999999);
#612=EDGE_CURVE('',#606,#606,#611,.T.);
#613=ORIENTED_EDGE('',*,*,#612,.F.);
#614=EDGE_LOOP('',(#613));
#615=FACE_OUTER_BOUND('',#614,.T.);
#616=ORIENTED_EDGE('',*,*,#592,.T.);
#617=EDGE_LOOP('',(#616));
#618=FACE_BOUND('',#617,.T.);
#619=ADVANCED_FACE('',(#615,#618),#604,.T.);
#620=CARTESIAN_POINT('',(3.607500000000000,4.510281E-016,0.0));
#621=DIRECTION('',(0.0,-1.0,0.0));
#622=DIRECTION('',(0.0,0.0,-1.0));
#623=AXIS2_PLACEMENT_3D('',#620,#621,#622);
#624=PLANE('',#623);
#625=ORIENTED_EDGE('',*,*,#612,.T.);
#626=EDGE_LOOP('',(#625));
#627=FACE_OUTER_BOUND('',#626,.T.);
#628=ORIENTED_EDGE('',*,*,#403,.F.);
#629=EDGE_LOOP('',(#628));
#630=FACE_BOUND('',#629,.T.);
#631=ADVANCED_FACE('',(#627,#630),#624,.T.);
#632=CLOSED_SHELL('',(#71,#130,#161,#185,#209,#237,#261,#285,#302,#319,#347,#367,#379,#407,#419,#439,#459,#479,#499,#519,#539,#559,#579,#599,#619,#631));
#633=MANIFOLD_SOLID_BREP('',#632);
#634=COLOUR_RGB('Standard',0.752941012382507,0.752941012382507,0.752941012382507);
#635=FILL_AREA_STYLE_COLOUR('Standard',#634);
#636=FILL_AREA_STYLE('Standard',(#635));
#637=SURFACE_STYLE_FILL_AREA(#636);
#638=SURFACE_SIDE_STYLE('Standard',(#637));
#639=SURFACE_STYLE_USAGE(.BOTH.,#638);
#640=PRESENTATION_STYLE_ASSIGNMENT((#639));
#641=STYLED_ITEM('',(#640),#633);
#642=MECHANICAL_DESIGN_GEOMETRIC_PRESENTATION_REPRESENTATION('',(#641),#36);
#643=ADVANCED_BREP_SHAPE_REPRESENTATION('ABSR',(#633),#36);
#644=SHAPE_REPRESENTATION_RELATIONSHIP('SRR','None',#643,#41);
ENDSEC;
END-ISO-10303-21;
