ISO-10303-21;
HEADER;
/****************************************************************
 * Generated by software with PDE/Lib inside                    *
 * PDElib Version 4.0, created Wed Jun 15 17:58:53 EDT 2005     *
 * International Technegroup Inc. (www.iti-oh.com)              *
 ****************************************************************/
FILE_DESCRIPTION((''),'2;1');
FILE_NAME('I:\\DATEN\\POOL\\CI\\Technische Zeichnungen\\3D Daten als STP\\Anschlussteile\\Winkelst\S\|ck\\Winkelstueck G1_4 M10x1 45\S\0 Sonderversion A260011306.stp','2006-04-07T08:42:13',('ScheitB'),(''),'Autodesk Inventor 10','Autodesk Inventor 10','');
FILE_SCHEMA(('AUTOMOTIVE_DESIGN { 1 0 10303 214 1 1 1 1 }'));
ENDSEC;
DATA;
#5=APPLICATION_CONTEXT('automotive design');
#6=APPLICATION_PROTOCOL_DEFINITION('Draft International Standard','automotive_design',1998,#5);
#7=PRODUCT_CONTEXT('None',#5,'mechanical');
#8=PRODUCT('anwin03g_m10','anwin03g_m10','None',(#7));
#9=PRODUCT_RELATED_PRODUCT_CATEGORY('part','description',(#8));
#10=PRODUCT_DEFINITION_FORMATION('None','None',#8);
#11=PRODUCT_DEFINITION_CONTEXT('part definition',#5,'design');
#12=PRODUCT_DEFINITION('None','None',#10,#11);
#18=(NAMED_UNIT(*)PLANE_ANGLE_UNIT()SI_UNIT($,.RADIAN.));
#19=DIMENSIONAL_EXPONENTS(0.0,0.0,0.0,0.0,0.0,0.0,0.0);
#20=PLANE_ANGLE_MEASURE_WITH_UNIT(PLANE_ANGLE_MEASURE(0.017453292500000),#18);
#24=(CONVERSION_BASED_UNIT('DEGREE',#20)NAMED_UNIT(#19)PLANE_ANGLE_UNIT());
#28=(NAMED_UNIT(*)SI_UNIT($,.STERADIAN.)SOLID_ANGLE_UNIT());
#32=(LENGTH_UNIT()NAMED_UNIT(*)SI_UNIT(.MILLI.,.METRE.));
#34=UNCERTAINTY_MEASURE_WITH_UNIT(LENGTH_MEASURE(0.010000000000000),#32,'DISTANCE_ACCURACY_VALUE','');
#36=(GEOMETRIC_REPRESENTATION_CONTEXT(3)GLOBAL_UNCERTAINTY_ASSIGNED_CONTEXT((#34))GLOBAL_UNIT_ASSIGNED_CONTEXT((#24,#28,#32))REPRESENTATION_CONTEXT('None','None'));
#37=AXIS2_PLACEMENT_3D('',#38,#39,#40);
#38=CARTESIAN_POINT('',(0.0,0.0,0.0));
#39=DIRECTION('',(0.0,0.0,1.0));
#40=DIRECTION('',(1.0,0.0,0.0));
#41=SHAPE_REPRESENTATION('',(#37),#36);
#42=PRODUCT_DEFINITION_SHAPE('','',#12);
#43=SHAPE_DEFINITION_REPRESENTATION(#42,#41);
#44=CARTESIAN_POINT('',(0.0,0.500000000000000,0.0));
#45=DIRECTION('',(0.0,1.0,0.0));
#46=DIRECTION('',(1.0,0.0,0.0));
#47=AXIS2_PLACEMENT_3D('',#44,#45,#46);
#48=CONICAL_SURFACE('',#47,4.500000000000000,44.999999999999979);
#49=CARTESIAN_POINT('',(-5.0,1.0,-6.123032E-016));
#50=VERTEX_POINT('',#49);
#51=CARTESIAN_POINT('',(0.0,1.0,0.0));
#52=DIRECTION('',(0.0,-1.0,0.0));
#53=DIRECTION('',(1.0,0.0,0.0));
#54=AXIS2_PLACEMENT_3D('',#51,#52,#53);
#55=CIRCLE('',#54,5.0);
#56=EDGE_CURVE('',#50,#50,#55,.T.);
#57=ORIENTED_EDGE('',*,*,#56,.T.);
#58=EDGE_LOOP('',(#57));
#59=FACE_OUTER_BOUND('',#58,.T.);
#60=CARTESIAN_POINT('',(-4.0,0.0,4.898425E-016));
#61=VERTEX_POINT('',#60);
#62=CARTESIAN_POINT('',(0.0,0.0,0.0));
#63=DIRECTION('',(0.0,1.0,0.0));
#64=DIRECTION('',(1.0,0.0,0.0));
#65=AXIS2_PLACEMENT_3D('',#62,#63,#64);
#66=CIRCLE('',#65,4.0);
#67=EDGE_CURVE('',#61,#61,#66,.T.);
#68=ORIENTED_EDGE('',*,*,#67,.T.);
#69=EDGE_LOOP('',(#68));
#70=FACE_BOUND('',#69,.T.);
#71=ADVANCED_FACE('',(#59,#70),#48,.T.);
#72=CARTESIAN_POINT('',(0.0,0.0,0.0));
#73=DIRECTION('',(0.0,1.0,0.0));
#74=DIRECTION('',(1.0,0.0,0.0));
#75=AXIS2_PLACEMENT_3D('',#72,#73,#74);
#76=CYLINDRICAL_SURFACE('',#75,5.0);
#77=CARTESIAN_POINT('',(0.0,12.000000000000002,5.0));
#78=VERTEX_POINT('',#77);
#79=CARTESIAN_POINT('',(0.0,12.000000000000002,-5.0));
#80=VERTEX_POINT('',#79);
#81=CARTESIAN_POINT('',(0.0,12.000000000000002,0.0));
#82=DIRECTION('',(0.0,1.0,0.0));
#83=DIRECTION('',(1.0,0.0,0.0));
#84=AXIS2_PLACEMENT_3D('',#81,#82,#83);
#85=CIRCLE('',#84,5.0);
#86=EDGE_CURVE('',#78,#80,#85,.T.);
#87=ORIENTED_EDGE('',*,*,#86,.F.);
#88=CARTESIAN_POINT('',(0.000010707654254,12.000010707670464,4.999999999988535));
#89=CARTESIAN_POINT('',(-0.349294570031314,11.650704372080423,5.000000748036563));
#90=CARTESIAN_POINT('',(-0.727581700487548,11.324566993572784,4.962310362198804));
#91=CARTESIAN_POINT('',(-1.110090849187186,11.022539502854375,4.875212642188120));
#92=CARTESIAN_POINT('',(-1.729759145814780,10.533252223466594,4.734113544342623));
#93=CARTESIAN_POINT('',(-2.360886048340003,10.103841938772973,4.460707545139490));
#94=CARTESIAN_POINT('',(-2.918542709839316,9.741341891494722,4.059816307524736));
#95=CARTESIAN_POINT('',(-3.171415908201317,9.576963784515469,3.878029454699580));
#96=CARTESIAN_POINT('',(-3.407379322544572,9.427829563987443,3.674283039784619));
#97=CARTESIAN_POINT('',(-3.635673388545943,9.285937188682670,3.432474182250881));
#98=CARTESIAN_POINT('',(-3.972183299472923,9.076785056910925,3.076043204717089));
#99=CARTESIAN_POINT('',(-4.278015713234049,8.892470032902324,2.641565021885876));
#100=CARTESIAN_POINT('',(-4.506867245536574,8.755930517615260,2.165213068293644));
#101=CARTESIAN_POINT('',(-4.657945840511883,8.665792610647216,1.850744630444938));
#102=CARTESIAN_POINT('',(-4.776110161405351,8.596064808958767,1.518468709574227));
#103=CARTESIAN_POINT('',(-4.857251349726544,8.548294601691163,1.186216390706039));
#104=CARTESIAN_POINT('',(-4.908199365625811,8.518300004252597,0.977597355484892));
#105=CARTESIAN_POINT('',(-4.945052848494451,8.496677991321509,0.770657875134121));
#106=CARTESIAN_POINT('',(-4.969197566137424,8.482519312425907,0.554143978307000));
#107=CARTESIAN_POINT('',(-5.024871352521306,8.449871704946386,0.054898196296224));
#108=CARTESIAN_POINT('',(-5.004056289768499,8.461983368945376,-0.476849450814475));
#109=CARTESIAN_POINT('',(-4.902143700394586,8.521886345580249,-0.984371444466816));
#110=CARTESIAN_POINT('',(-4.816513628516380,8.572218657088328,-1.410806932596454));
#111=CARTESIAN_POINT('',(-4.674331644869000,8.655975761230854,-1.820732970889188));
#112=CARTESIAN_POINT('',(-4.497082744347203,8.761769388774354,-2.185462603316431));
#113=CARTESIAN_POINT('',(-4.372602713319947,8.836067136181150,-2.441608372500031));
#114=CARTESIAN_POINT('',(-4.231692383745592,8.920699775633141,-2.677246919909921));
#115=CARTESIAN_POINT('',(-4.072981195814790,9.017190513093997,-2.900142096266859));
#116=CARTESIAN_POINT('',(-3.623535480735672,9.290437466015263,-3.531347011506411));
#117=CARTESIAN_POINT('',(-3.038595745150975,9.652718908478656,-4.036475800349137));
#118=CARTESIAN_POINT('',(-2.402419927154573,10.083574210609587,-4.385017502087149));
#119=CARTESIAN_POINT('',(-1.857120676578582,10.452882610445711,-4.683770650785569));
#120=CARTESIAN_POINT('',(-1.272726055082624,10.874220505454845,-4.866906606019951));
#121=CARTESIAN_POINT('',(-0.724850453400514,11.336811609864256,-4.947180188774719));
#122=CARTESIAN_POINT('',(-0.472634732434999,11.549766427623323,-4.984134306619751));
#123=CARTESIAN_POINT('',(-0.227696323101741,11.772318696099910,-4.999989378769388));
#124=CARTESIAN_POINT('',(-0.000233351943687,11.999766655756634,-4.999999994554687));
#125=B_SPLINE_CURVE_WITH_KNOTS('',3,(#88,#89,#90,#91,#92,#93,#94,#95,#96,#97,#98,#99,#100,#101,#102,#103,#104,#105,#106,#107,#108,#109,#110,#111,#112,#113,#114,#115,#116,#117,#118,#119,#120,#121,#122,#123,#124),.UNSPECIFIED.,.F.,.U.,(4,3,3,3,3,3,3,3,3,3,3,3,4),(5.356806979907892,5.498956177664151,5.729239169692058,5.833662555518570,5.987584665184628,6.089197863182546,6.153000118661976,6.300117728190350,6.423730439395675,6.510542341082535,6.756380317218408,6.967100782155615,7.064106405007139),.UNSPECIFIED.);
#126=EDGE_CURVE('',#78,#80,#125,.T.);
#127=ORIENTED_EDGE('',*,*,#126,.T.);
#128=EDGE_LOOP('',(#87,#127));
#129=FACE_OUTER_BOUND('',#128,.T.);
#130=ORIENTED_EDGE('',*,*,#56,.F.);
#131=EDGE_LOOP('',(#130));
#132=FACE_BOUND('',#131,.T.);
#133=ADVANCED_FACE('',(#129,#132),#76,.T.);
#134=CARTESIAN_POINT('',(0.0,0.0,0.0));
#135=DIRECTION('',(0.0,-1.0,0.0));
#136=DIRECTION('',(0.0,0.0,-1.0));
#137=AXIS2_PLACEMENT_3D('',#134,#135,#136);
#138=PLANE('',#137);
#139=ORIENTED_EDGE('',*,*,#67,.F.);
#140=EDGE_LOOP('',(#139));
#141=FACE_OUTER_BOUND('',#140,.T.);
#142=CARTESIAN_POINT('',(2.250000000000000,0.0,0.0));
#143=VERTEX_POINT('',#142);
#144=CARTESIAN_POINT('',(0.0,0.0,0.0));
#145=DIRECTION('',(0.0,1.0,0.0));
#146=DIRECTION('',(1.0,0.0,0.0));
#147=AXIS2_PLACEMENT_3D('',#144,#145,#146);
#148=CIRCLE('',#147,2.249999999999999);
#149=EDGE_CURVE('',#143,#143,#148,.T.);
#150=ORIENTED_EDGE('',*,*,#149,.T.);
#151=EDGE_LOOP('',(#150));
#152=FACE_BOUND('',#151,.T.);
#153=ADVANCED_FACE('',(#141,#152),#138,.T.);
#154=CARTESIAN_POINT('',(-10.606601717798217,22.606601717798213,0.0));
#155=DIRECTION('',(-0.707106781186548,0.707106781186548,0.0));
#156=DIRECTION('',(0.707106781186547,0.707106781186548,0.0));
#157=AXIS2_PLACEMENT_3D('',#154,#155,#156);
#158=CONICAL_SURFACE('',#157,6.222499999999999,45.0);
#159=CARTESIAN_POINT('',(-14.299466882544960,18.206629771864918,-7.007810E-016));
#160=VERTEX_POINT('',#159);
#161=CARTESIAN_POINT('',(-10.253048327204944,22.253048327204937,0.0));
#162=DIRECTION('',(0.707106781186548,-0.707106781186547,0.0));
#163=DIRECTION('',(0.707106781186547,0.707106781186548,0.0));
#164=AXIS2_PLACEMENT_3D('',#161,#162,#163);
#165=CIRCLE('',#164,5.722500000000001);
#166=EDGE_CURVE('',#160,#160,#165,.T.);
#167=ORIENTED_EDGE('',*,*,#166,.T.);
#168=EDGE_LOOP('',(#167));
#169=FACE_OUTER_BOUND('',#168,.T.);
#170=CARTESIAN_POINT('',(-15.713680444918053,18.206629771864918,8.232416E-016));
#171=VERTEX_POINT('',#170);
#172=CARTESIAN_POINT('',(-10.960155108391490,22.960155108391483,0.0));
#173=DIRECTION('',(-0.707106781186548,0.707106781186547,0.0));
#174=DIRECTION('',(0.707106781186547,0.707106781186548,0.0));
#175=AXIS2_PLACEMENT_3D('',#172,#173,#174);
#176=CIRCLE('',#175,6.722499999999998);
#177=EDGE_CURVE('',#171,#171,#176,.T.);
#178=ORIENTED_EDGE('',*,*,#177,.T.);
#179=EDGE_LOOP('',(#178));
#180=FACE_BOUND('',#179,.T.);
#181=ADVANCED_FACE('',(#169,#180),#158,.F.);
#182=CARTESIAN_POINT('',(-10.253048327204947,30.345885437884974,-7.007810E-016));
#183=CARTESIAN_POINT('',(6.183648801476363,13.909188309203678,-7.007810E-016));
#184=CARTESIAN_POINT('',(-10.253048327204947,30.345885437884974,-5.722499999999998));
#185=CARTESIAN_POINT('',(6.183648801476362,13.909188309203678,-5.722500000000001));
#186=CARTESIAN_POINT('',(-14.299466882544962,26.299466882544955,-5.722499999999998));
#187=CARTESIAN_POINT('',(2.137230246136347,9.862769753863656,-5.722500000000001));
#188=CARTESIAN_POINT('',(-18.345885437884977,22.253048327204937,-5.722499999999997));
#189=CARTESIAN_POINT('',(-1.909188309203668,5.816351198523635,-5.722499999999998));
#190=CARTESIAN_POINT('',(-18.345885437884977,22.253048327204937,7.007810E-016));
#191=CARTESIAN_POINT('',(-1.909188309203668,5.816351198523634,7.007810E-016));
#192=CARTESIAN_POINT('',(-18.345885437884977,22.253048327204937,5.722499999999998));
#193=CARTESIAN_POINT('',(-1.909188309203667,5.816351198523635,5.722500000000001));
#194=CARTESIAN_POINT('',(-14.299466882544962,26.299466882544955,5.722499999999998));
#195=CARTESIAN_POINT('',(2.137230246136348,9.862769753863656,5.722500000000001));
#196=CARTESIAN_POINT('',(-10.253048327204947,30.345885437884974,5.722499999999997));
#197=CARTESIAN_POINT('',(6.183648801476362,13.909188309203678,5.722499999999998));
#198=CARTESIAN_POINT('',(-10.253048327204947,30.345885437884974,-7.007810E-016));
#199=CARTESIAN_POINT('',(6.183648801476363,13.909188309203678,-7.007810E-016));
#207=(BOUNDED_SURFACE()B_SPLINE_SURFACE(1,2,((#182,#184,#186,#188,#190,#192,#194,#196,#198),(#183,#185,#187,#189,#191,#193,#195,#197,#199)),.UNSPECIFIED.,.F.,.T.,.U.)B_SPLINE_SURFACE_WITH_KNOTS((2,2),(3,2,2,2,3),(-1.943643512450853,2.118392311052862),(0.0,8.988881980083797,17.977763960167593,26.966645940251393,35.955527920335186),.UNSPECIFIED.)GEOMETRIC_REPRESENTATION_ITEM()RATIONAL_B_SPLINE_SURFACE(((1.0,0.707106781186548,1.0,0.707106781186548,1.0,0.707106781186548,1.0,0.707106781186548,1.0),(1.0,0.707106781186548,1.0,0.707106781186548,1.0,0.707106781186548,1.0,0.707106781186548,1.0)))REPRESENTATION_ITEM('')SURFACE());
#208=CARTESIAN_POINT('',(-5.955606864543692,9.862769753863656,0.0));
#209=VERTEX_POINT('',#208);
#210=CARTESIAN_POINT('',(-1.909188309203675,13.909188309203678,0.0));
#211=DIRECTION('',(-0.707106781186548,0.707106781186547,0.0));
#212=DIRECTION('',(-0.707106781186547,-0.707106781186548,0.0));
#213=AXIS2_PLACEMENT_3D('',#210,#211,#212);
#214=CIRCLE('',#213,5.722500000000001);
#215=EDGE_CURVE('',#209,#209,#214,.T.);
#216=ORIENTED_EDGE('',*,*,#215,.F.);
#217=EDGE_LOOP('',(#216));
#218=FACE_OUTER_BOUND('',#217,.T.);
#219=ORIENTED_EDGE('',*,*,#166,.F.);
#220=EDGE_LOOP('',(#219));
#221=FACE_BOUND('',#220,.T.);
#222=ADVANCED_FACE('',(#218,#221),#207,.F.);
#223=CARTESIAN_POINT('',(-10.960155108391490,22.960155108391483,0.0));
#224=DIRECTION('',(0.707106781186548,-0.707106781186547,0.0));
#225=DIRECTION('',(0.0,0.0,-1.0));
#226=AXIS2_PLACEMENT_3D('',#223,#224,#225);
#227=PLANE('',#226);
#228=CARTESIAN_POINT('',(-10.960155108391490,22.960155108391483,8.500000000000000));
#229=VERTEX_POINT('',#228);
#230=CARTESIAN_POINT('',(-10.960155108391490,22.960155108391483,0.0));
#231=DIRECTION('',(0.707106781186548,-0.707106781186547,0.0));
#232=DIRECTION('',(0.0,0.0,-1.0));
#233=AXIS2_PLACEMENT_3D('',#230,#231,#232);
#234=CIRCLE('',#233,8.500000000000000);
#235=EDGE_CURVE('',#229,#229,#234,.T.);
#236=ORIENTED_EDGE('',*,*,#235,.F.);
#237=EDGE_LOOP('',(#236));
#238=FACE_OUTER_BOUND('',#237,.T.);
#239=ORIENTED_EDGE('',*,*,#177,.F.);
#240=EDGE_LOOP('',(#239));
#241=FACE_BOUND('',#240,.T.);
#242=ADVANCED_FACE('',(#238,#241),#227,.F.);
#243=CARTESIAN_POINT('',(8.326673E-016,12.000000000000002,0.0));
#244=DIRECTION('',(0.0,0.0,1.0));
#245=DIRECTION('',(1.0,0.0,0.0));
#246=AXIS2_PLACEMENT_3D('',#243,#244,#245);
#247=SPHERICAL_SURFACE('',#246,2.249999999999997);
#248=CARTESIAN_POINT('',(-0.805380797767262,11.999999999999991,-2.100919267984317));
#249=VERTEX_POINT('',#248);
#250=CARTESIAN_POINT('',(-0.805380797767262,11.999999999999991,2.100919267984317));
#251=VERTEX_POINT('',#250);
#252=CARTESIAN_POINT('',(-0.402690398883626,12.402690398883626,0.0));
#253=DIRECTION('',(0.707106781186547,-0.707106781186548,0.0));
#254=DIRECTION('',(-0.707106781186548,-0.707106781186547,0.0));
#255=AXIS2_PLACEMENT_3D('',#252,#253,#254);
#256=CIRCLE('',#255,2.176736292088197);
#257=EDGE_CURVE('',#249,#251,#256,.T.);
#258=ORIENTED_EDGE('',*,*,#257,.F.);
#259=CARTESIAN_POINT('',(6.373686E-016,12.000000000000002,-2.249999999999998));
#260=VERTEX_POINT('',#259);
#261=CARTESIAN_POINT('',(0.0,12.000000000000002,0.0));
#262=DIRECTION('',(0.0,1.0,0.0));
#263=DIRECTION('',(1.0,0.0,0.0));
#264=AXIS2_PLACEMENT_3D('',#261,#262,#263);
#265=CIRCLE('',#264,2.249999999999998);
#266=EDGE_CURVE('',#260,#249,#265,.T.);
#267=ORIENTED_EDGE('',*,*,#266,.F.);
#268=CARTESIAN_POINT('',(0.0,12.000000000000002,0.0));
#269=DIRECTION('',(0.0,1.0,0.0));
#270=DIRECTION('',(1.0,0.0,0.0));
#271=AXIS2_PLACEMENT_3D('',#268,#269,#270);
#272=CIRCLE('',#271,2.249999999999998);
#273=EDGE_CURVE('',#251,#260,#272,.T.);
#274=ORIENTED_EDGE('',*,*,#273,.F.);
#275=EDGE_LOOP('',(#258,#267,#274));
#276=FACE_OUTER_BOUND('',#275,.T.);
#277=ADVANCED_FACE('',(#276),#247,.F.);
#278=CARTESIAN_POINT('',(0.0,6.000000000000001,0.0));
#279=DIRECTION('',(0.0,1.0,0.0));
#280=DIRECTION('',(1.0,0.0,0.0));
#281=AXIS2_PLACEMENT_3D('',#278,#279,#280);
#282=CYLINDRICAL_SURFACE('',#281,2.249999999999999);
#283=CARTESIAN_POINT('',(-0.805380797767263,11.999999999999991,2.100919267984319));
#284=CARTESIAN_POINT('',(-1.026866633598278,11.778514164168982,2.016013368993322));
#285=CARTESIAN_POINT('',(-1.257718640044806,11.573613004482278,1.884496349191929));
#286=CARTESIAN_POINT('',(-1.460007863428363,11.404157729741769,1.711980443441847));
#287=CARTESIAN_POINT('',(-1.587602412511533,11.297273294631335,1.603165505919844));
#288=CARTESIAN_POINT('',(-1.701974065329830,11.205535214961376,1.482584558103061));
#289=CARTESIAN_POINT('',(-1.808816641039455,11.121701055200084,1.338163801295917));
#290=CARTESIAN_POINT('',(-1.973859850906208,10.992199695544643,1.115072350003907));
#291=CARTESIAN_POINT('',(-2.109399923659886,10.890964154844594,0.839547507707368));
#292=CARTESIAN_POINT('',(-2.182890293452635,10.836347275757765,0.545426408189287));
#293=CARTESIAN_POINT('',(-2.225903256878546,10.804380722463446,0.373281130759913));
#294=CARTESIAN_POINT('',(-2.248184253142086,10.788019560756975,0.195435135709102));
#295=CARTESIAN_POINT('',(-2.249890875732548,10.786761739366886,0.022159586986803));
#296=CARTESIAN_POINT('',(-2.251667995155484,10.785451960136609,-0.158273594242249));
#297=CARTESIAN_POINT('',(-2.231386085945432,10.800329950129846,-0.342888513986960));
#298=CARTESIAN_POINT('',(-2.188455913642231,10.832212455762182,-0.522647791580855));
#299=CARTESIAN_POINT('',(-2.132946942829350,10.873436727169423,-0.755077617923756));
#300=CARTESIAN_POINT('',(-2.039468722282540,10.943154608767756,-0.977007351613740));
#301=CARTESIAN_POINT('',(-1.921413076960428,11.034146979892741,-1.170756929377510));
#302=CARTESIAN_POINT('',(-1.844945002141218,11.093085384948916,-1.296254165602056));
#303=CARTESIAN_POINT('',(-1.758577074290481,11.160714205757614,-1.409878691888284));
#304=CARTESIAN_POINT('',(-1.668971154240190,11.232751235529923,-1.508984852910779));
#305=CARTESIAN_POINT('',(-1.576908275525582,11.306763491987605,-1.610808465423921));
#306=CARTESIAN_POINT('',(-1.476944161230966,11.388921414682533,-1.702759537581131));
#307=CARTESIAN_POINT('',(-1.369758060109782,11.480503161953552,-1.785010604104156));
#308=CARTESIAN_POINT('',(-1.190602402776773,11.633577002315510,-1.922488726128704));
#309=CARTESIAN_POINT('',(-0.994545691587962,11.810835106179297,-2.028403500521713));
#310=CARTESIAN_POINT('',(-0.805380797767263,11.999999999999991,-2.100919267984319));
#311=B_SPLINE_CURVE_WITH_KNOTS('',3,(#283,#284,#285,#286,#287,#288,#289,#290,#291,#292,#293,#294,#295,#296,#297,#298,#299,#300,#301,#302,#303,#304,#305,#306,#307,#308,#309,#310),.UNSPECIFIED.,.F.,.U.,(4,3,3,3,3,3,3,3,3,4),(-0.291009327019814,-0.200060567724255,-0.142694358403321,-0.054078904673089,-0.002213425141306,0.051794503483914,0.121627079802223,0.166859670384035,0.213332520596874,0.291009327019813),.UNSPECIFIED.);
#312=EDGE_CURVE('',#251,#249,#311,.T.);
#313=ORIENTED_EDGE('',*,*,#312,.F.);
#314=ORIENTED_EDGE('',*,*,#273,.T.);
#315=ORIENTED_EDGE('',*,*,#266,.T.);
#316=EDGE_LOOP('',(#313,#314,#315));
#317=FACE_OUTER_BOUND('',#316,.T.);
#318=ORIENTED_EDGE('',*,*,#149,.F.);
#319=EDGE_LOOP('',(#318));
#320=FACE_BOUND('',#319,.T.);
#321=ADVANCED_FACE('',(#317,#320),#282,.F.);
#322=CARTESIAN_POINT('',(-3.060660171779819,15.060660171779819,0.0));
#323=DIRECTION('',(0.707106781186548,-0.707106781186547,0.0));
#324=DIRECTION('',(0.0,0.0,-1.0));
#325=AXIS2_PLACEMENT_3D('',#322,#323,#324);
#326=TOROIDAL_SURFACE('',#325,6.500000000000002,2.0);
#327=CARTESIAN_POINT('',(-3.060660171779819,15.060660171779819,8.500000000000000));
#328=VERTEX_POINT('',#327);
#329=CARTESIAN_POINT('',(-3.060660171779819,15.060660171779819,0.0));
#330=DIRECTION('',(0.707106781186548,-0.707106781186547,0.0));
#331=DIRECTION('',(0.0,0.0,-1.0));
#332=AXIS2_PLACEMENT_3D('',#329,#330,#331);
#333=CIRCLE('',#332,8.500000000000000);
#334=EDGE_CURVE('',#328,#328,#333,.T.);
#335=ORIENTED_EDGE('',*,*,#334,.T.);
#336=EDGE_LOOP('',(#335));
#337=FACE_OUTER_BOUND('',#336,.T.);
#338=CARTESIAN_POINT('',(-2.060660171779818,14.060660171779817,7.914213562373096));
#339=VERTEX_POINT('',#338);
#340=CARTESIAN_POINT('',(-2.060660171779819,14.060660171779817,0.0));
#341=DIRECTION('',(-0.707106781186548,0.707106781186547,0.0));
#342=DIRECTION('',(0.0,0.0,-1.0));
#343=AXIS2_PLACEMENT_3D('',#340,#341,#342);
#344=CIRCLE('',#343,7.914213562373096);
#345=EDGE_CURVE('',#339,#339,#344,.T.);
#346=ORIENTED_EDGE('',*,*,#345,.T.);
#347=EDGE_LOOP('',(#346));
#348=FACE_BOUND('',#347,.T.);
#349=ADVANCED_FACE('',(#337,#348),#326,.T.);
#350=CARTESIAN_POINT('',(-1.237436867076456,13.237436867076456,0.0));
#351=DIRECTION('',(-0.707106781186548,0.707106781186547,0.0));
#352=DIRECTION('',(0.0,0.0,-1.0));
#353=AXIS2_PLACEMENT_3D('',#350,#351,#352);
#354=CONICAL_SURFACE('',#353,6.750000000000000,45.0);
#355=ORIENTED_EDGE('',*,*,#126,.F.);
#356=CARTESIAN_POINT('',(0.0,12.000000000000002,0.0));
#357=DIRECTION('',(0.707106781186548,-0.707106781186547,0.0));
#358=DIRECTION('',(0.707106781186547,0.707106781186548,0.0));
#359=AXIS2_PLACEMENT_3D('',#356,#357,#358);
#360=CIRCLE('',#359,5.000000000000001);
#361=EDGE_CURVE('',#80,#78,#360,.T.);
#362=ORIENTED_EDGE('',*,*,#361,.F.);
#363=EDGE_LOOP('',(#355,#362));
#364=FACE_OUTER_BOUND('',#363,.T.);
#365=ORIENTED_EDGE('',*,*,#345,.F.);
#366=EDGE_LOOP('',(#365));
#367=FACE_BOUND('',#366,.T.);
#368=ADVANCED_FACE('',(#364,#367),#354,.T.);
#369=CARTESIAN_POINT('',(-10.960155108391490,22.960155108391483,0.0));
#370=DIRECTION('',(0.707106781186548,-0.707106781186547,0.0));
#371=DIRECTION('',(0.0,0.0,-1.0));
#372=AXIS2_PLACEMENT_3D('',#369,#370,#371);
#373=CYLINDRICAL_SURFACE('',#372,8.500000000000000);
#374=ORIENTED_EDGE('',*,*,#235,.T.);
#375=EDGE_LOOP('',(#374));
#376=FACE_OUTER_BOUND('',#375,.T.);
#377=ORIENTED_EDGE('',*,*,#334,.F.);
#378=EDGE_LOOP('',(#377));
#379=FACE_BOUND('',#378,.T.);
#380=ADVANCED_FACE('',(#376,#379),#373,.T.);
#381=CARTESIAN_POINT('',(4.825183069451136,28.736396798538529,-1.867076E-015));
#382=CARTESIAN_POINT('',(0.522145248802534,11.477854751197469,4.930381E-032));
#383=CARTESIAN_POINT('',(4.825183069451133,28.736396798538529,-15.246339337750838));
#384=CARTESIAN_POINT('',(0.522145248802534,11.477854751197469,7.850462E-017));
#385=CARTESIAN_POINT('',(-5.955606864543696,17.955606864543693,-15.246339337750838));
#386=CARTESIAN_POINT('',(0.522145248802534,11.477854751197469,7.850462E-017));
#387=CARTESIAN_POINT('',(-16.736396798538525,7.174816930548860,-15.246339337750832));
#388=CARTESIAN_POINT('',(0.522145248802534,11.477854751197469,7.850462E-017));
#389=CARTESIAN_POINT('',(-16.736396798538525,7.174816930548857,1.867076E-015));
#390=CARTESIAN_POINT('',(0.522145248802534,11.477854751197469,-4.930381E-032));
#391=CARTESIAN_POINT('',(-16.736396798538522,7.174816930548860,15.246339337750838));
#392=CARTESIAN_POINT('',(0.522145248802534,11.477854751197469,-7.850462E-017));
#393=CARTESIAN_POINT('',(-5.955606864543694,17.955606864543693,15.246339337750838));
#394=CARTESIAN_POINT('',(0.522145248802534,11.477854751197469,-7.850462E-017));
#395=CARTESIAN_POINT('',(4.825183069451135,28.736396798538529,15.246339337750832));
#396=CARTESIAN_POINT('',(0.522145248802534,11.477854751197469,-7.850462E-017));
#397=CARTESIAN_POINT('',(4.825183069451136,28.736396798538529,-1.867076E-015));
#398=CARTESIAN_POINT('',(0.522145248802534,11.477854751197469,4.930381E-032));
#406=(BOUNDED_SURFACE()B_SPLINE_SURFACE(1,2,((#381,#383,#385,#387,#389,#391,#393,#395,#397),(#382,#384,#386,#388,#390,#392,#394,#396,#398)),.UNSPECIFIED.,.F.,.T.,.U.)B_SPLINE_SURFACE_WITH_KNOTS((2,2),(3,2,2,2,3),(-5.049841450036042,1.166633397215331),(0.0,4.494440990041898,8.988881980083797,13.483322970125696,17.977763960167593),.UNSPECIFIED.)GEOMETRIC_REPRESENTATION_ITEM()RATIONAL_B_SPLINE_SURFACE(((1.0,0.707106781186548,1.0,0.707106781186548,1.0,0.707106781186548,1.0,0.707106781186548,1.0),(1.0,0.707106781186548,1.0,0.707106781186548,1.0,0.707106781186548,1.0,0.707106781186548,1.0)))REPRESENTATION_ITEM('')SURFACE());
#407=ORIENTED_EDGE('',*,*,#312,.T.);
#408=ORIENTED_EDGE('',*,*,#257,.T.);
#409=EDGE_LOOP('',(#407,#408));
#410=FACE_OUTER_BOUND('',#409,.T.);
#411=ORIENTED_EDGE('',*,*,#215,.T.);
#412=EDGE_LOOP('',(#411));
#413=FACE_BOUND('',#412,.T.);
#414=ADVANCED_FACE('',(#410,#413),#406,.F.);
#415=CARTESIAN_POINT('',(0.0,12.000000000000002,0.0));
#416=DIRECTION('',(0.0,0.0,1.0));
#417=DIRECTION('',(1.0,0.0,0.0));
#418=AXIS2_PLACEMENT_3D('',#415,#416,#417);
#419=SPHERICAL_SURFACE('',#418,5.0);
#420=ORIENTED_EDGE('',*,*,#86,.T.);
#421=ORIENTED_EDGE('',*,*,#361,.T.);
#422=EDGE_LOOP('',(#420,#421));
#423=FACE_OUTER_BOUND('',#422,.T.);
#424=ADVANCED_FACE('',(#423),#419,.T.);
#425=CLOSED_SHELL('',(#71,#133,#153,#181,#222,#242,#277,#321,#349,#368,#380,#414,#424));
#426=MANIFOLD_SOLID_BREP('',#425);
#427=COLOUR_RGB('Metall - Messing',0.780391991138458,0.568626999855042,0.113724999129772);
#428=FILL_AREA_STYLE_COLOUR('Metall - Messing',#427);
#429=FILL_AREA_STYLE('Metall - Messing',(#428));
#430=SURFACE_STYLE_FILL_AREA(#429);
#431=SURFACE_SIDE_STYLE('Metall - Messing',(#430));
#432=SURFACE_STYLE_USAGE(.BOTH.,#431);
#433=PRESENTATION_STYLE_ASSIGNMENT((#432));
#434=STYLED_ITEM('',(#433),#426);
#435=MECHANICAL_DESIGN_GEOMETRIC_PRESENTATION_REPRESENTATION('',(#434),#36);
#436=ADVANCED_BREP_SHAPE_REPRESENTATION('ABSR',(#426),#36);
#437=SHAPE_REPRESENTATION_RELATIONSHIP('SRR','None',#436,#41);
ENDSEC;
END-ISO-10303-21;
