ISO-10303-21;
HEADER;
/* Generated by software containing ST-Developer
 * from STEP Tools, Inc. (www.steptools.com) 
 */

FILE_DESCRIPTION(
/* description */ (''),
/* implementation_level */ '2;1');

FILE_NAME(
/* name */ 
'I:\\_CI_\\Zeichnungen\\3D_Daten_als_STP\\Anschlussteile\\Verlaengerun
g\\Verlaengerung_14mm_M6x0_75a_x_M6i_Edelstahl_116291.stp',
/* time_stamp */ '2021-01-18T16:06:02+01:00',
/* author */ ('002245'),
/* organization */ (''),
/* preprocessor_version */ 'ST-DEVELOPER v17.2',
/* originating_system */ 'Autodesk Inventor 2019',
/* authorisation */ '');

FILE_SCHEMA (('AUTOMOTIVE_DESIGN { 1 0 10303 214 3 1 1 }'));
ENDSEC;

DATA;
#10=MECHANICAL_DESIGN_GEOMETRIC_PRESENTATION_REPRESENTATION('',(#13),#544);
#11=SHAPE_REPRESENTATION_RELATIONSHIP('SRR','None',#551,#12);
#12=ADVANCED_BREP_SHAPE_REPRESENTATION('',(#14),#543);
#13=STYLED_ITEM('',(#560),#14);
#14=MANIFOLD_SOLID_BREP('Volumenk\X\F6rper1',#308);
#15=CONICAL_SURFACE('',#335,2.894,0.785398163397448);
#16=CONICAL_SURFACE('',#343,2.7,0.785398163397448);
#17=CONICAL_SURFACE('',#353,1.297,1.02974425867665);
#18=FACE_BOUND('',#51,.T.);
#19=FACE_BOUND('',#58,.T.);
#20=FACE_BOUND('',#62,.T.);
#21=FACE_BOUND('',#66,.T.);
#22=PLANE('',#331);
#23=PLANE('',#332);
#24=PLANE('',#333);
#25=PLANE('',#334);
#26=PLANE('',#342);
#27=PLANE('',#350);
#28=PLANE('',#357);
#29=PLANE('',#358);
#30=PLANE('',#359);
#31=PLANE('',#360);
#32=FACE_OUTER_BOUND('',#49,.T.);
#33=FACE_OUTER_BOUND('',#50,.T.);
#34=FACE_OUTER_BOUND('',#52,.T.);
#35=FACE_OUTER_BOUND('',#53,.T.);
#36=FACE_OUTER_BOUND('',#54,.T.);
#37=FACE_OUTER_BOUND('',#55,.T.);
#38=FACE_OUTER_BOUND('',#56,.T.);
#39=FACE_OUTER_BOUND('',#57,.T.);
#40=FACE_OUTER_BOUND('',#59,.T.);
#41=FACE_OUTER_BOUND('',#60,.T.);
#42=FACE_OUTER_BOUND('',#61,.T.);
#43=FACE_OUTER_BOUND('',#63,.T.);
#44=FACE_OUTER_BOUND('',#64,.T.);
#45=FACE_OUTER_BOUND('',#65,.T.);
#46=FACE_OUTER_BOUND('',#67,.T.);
#47=FACE_OUTER_BOUND('',#68,.T.);
#48=FACE_OUTER_BOUND('',#69,.T.);
#49=EDGE_LOOP('',(#205,#206,#207,#208));
#50=EDGE_LOOP('',(#209,#210,#211,#212,#213,#214));
#51=EDGE_LOOP('',(#215));
#52=EDGE_LOOP('',(#216,#217,#218,#219));
#53=EDGE_LOOP('',(#220,#221,#222,#223));
#54=EDGE_LOOP('',(#224,#225,#226,#227));
#55=EDGE_LOOP('',(#228,#229,#230,#231,#232));
#56=EDGE_LOOP('',(#233,#234,#235,#236,#237,#238));
#57=EDGE_LOOP('',(#239,#240,#241,#242,#243,#244));
#58=EDGE_LOOP('',(#245));
#59=EDGE_LOOP('',(#246,#247,#248,#249,#250));
#60=EDGE_LOOP('',(#251,#252,#253,#254,#255,#256));
#61=EDGE_LOOP('',(#257));
#62=EDGE_LOOP('',(#258,#259));
#63=EDGE_LOOP('',(#260,#261,#262,#263,#264,#265));
#64=EDGE_LOOP('',(#266,#267,#268,#269,#270,#271));
#65=EDGE_LOOP('',(#272));
#66=EDGE_LOOP('',(#273,#274));
#67=EDGE_LOOP('',(#275,#276,#277,#278));
#68=EDGE_LOOP('',(#279,#280,#281,#282));
#69=EDGE_LOOP('',(#283,#284,#285,#286));
#70=LINE('',#459,#95);
#71=LINE('',#464,#96);
#72=LINE('',#466,#97);
#73=LINE('',#468,#98);
#74=LINE('',#470,#99);
#75=LINE('',#472,#100);
#76=LINE('',#473,#101);
#77=LINE('',#476,#102);
#78=LINE('',#478,#103);
#79=LINE('',#479,#104);
#80=LINE('',#482,#105);
#81=LINE('',#483,#106);
#82=LINE('',#486,#107);
#83=LINE('',#487,#108);
#84=LINE('',#492,#109);
#85=LINE('',#498,#110);
#86=LINE('',#504,#111);
#87=LINE('',#506,#112);
#88=LINE('',#507,#113);
#89=LINE('',#512,#114);
#90=LINE('',#518,#115);
#91=LINE('',#529,#116);
#92=LINE('',#534,#117);
#93=LINE('',#537,#118);
#94=LINE('',#539,#119);
#95=VECTOR('',#367,4.4);
#96=VECTOR('',#372,10.);
#97=VECTOR('',#373,10.);
#98=VECTOR('',#374,10.);
#99=VECTOR('',#375,10.);
#100=VECTOR('',#376,10.);
#101=VECTOR('',#377,10.);
#102=VECTOR('',#380,10.);
#103=VECTOR('',#381,10.);
#104=VECTOR('',#382,10.);
#105=VECTOR('',#385,10.);
#106=VECTOR('',#386,10.);
#107=VECTOR('',#389,10.);
#108=VECTOR('',#390,10.);
#109=VECTOR('',#395,2.894);
#110=VECTOR('',#402,2.594);
#111=VECTOR('',#409,10.);
#112=VECTOR('',#410,10.);
#113=VECTOR('',#411,10.);
#114=VECTOR('',#416,2.7);
#115=VECTOR('',#423,3.);
#116=VECTOR('',#436,1.297);
#117=VECTOR('',#443,1.25);
#118=VECTOR('',#448,10.);
#119=VECTOR('',#451,10.);
#120=CIRCLE('',#329,4.4);
#121=CIRCLE('',#330,4.4);
#122=CIRCLE('',#336,3.194);
#123=CIRCLE('',#337,2.594);
#124=CIRCLE('',#338,2.594);
#125=CIRCLE('',#340,2.594);
#126=CIRCLE('',#341,2.594);
#127=CIRCLE('',#344,2.4);
#128=CIRCLE('',#345,3.);
#129=CIRCLE('',#346,3.);
#130=CIRCLE('',#348,3.);
#131=CIRCLE('',#349,3.);
#132=CIRCLE('',#351,1.25);
#133=CIRCLE('',#352,1.25);
#134=CIRCLE('',#354,1.25);
#135=CIRCLE('',#355,1.25);
#136=VERTEX_POINT('',#456);
#137=VERTEX_POINT('',#458);
#138=VERTEX_POINT('',#462);
#139=VERTEX_POINT('',#463);
#140=VERTEX_POINT('',#465);
#141=VERTEX_POINT('',#467);
#142=VERTEX_POINT('',#469);
#143=VERTEX_POINT('',#471);
#144=VERTEX_POINT('',#475);
#145=VERTEX_POINT('',#477);
#146=VERTEX_POINT('',#481);
#147=VERTEX_POINT('',#485);
#148=VERTEX_POINT('',#489);
#149=VERTEX_POINT('',#491);
#150=VERTEX_POINT('',#493);
#151=VERTEX_POINT('',#497);
#152=VERTEX_POINT('',#499);
#153=VERTEX_POINT('',#503);
#154=VERTEX_POINT('',#505);
#155=VERTEX_POINT('',#509);
#156=VERTEX_POINT('',#511);
#157=VERTEX_POINT('',#513);
#158=VERTEX_POINT('',#517);
#159=VERTEX_POINT('',#519);
#160=VERTEX_POINT('',#523);
#161=VERTEX_POINT('',#524);
#162=VERTEX_POINT('',#528);
#163=VERTEX_POINT('',#530);
#164=EDGE_CURVE('',#136,#136,#120,.T.);
#165=EDGE_CURVE('',#136,#137,#70,.T.);
#166=EDGE_CURVE('',#137,#137,#121,.T.);
#167=EDGE_CURVE('',#138,#139,#71,.T.);
#168=EDGE_CURVE('',#140,#138,#72,.T.);
#169=EDGE_CURVE('',#141,#140,#73,.T.);
#170=EDGE_CURVE('',#142,#141,#74,.T.);
#171=EDGE_CURVE('',#143,#142,#75,.T.);
#172=EDGE_CURVE('',#139,#143,#76,.T.);
#173=EDGE_CURVE('',#141,#144,#77,.T.);
#174=EDGE_CURVE('',#144,#145,#78,.T.);
#175=EDGE_CURVE('',#142,#145,#79,.T.);
#176=EDGE_CURVE('',#140,#146,#80,.T.);
#177=EDGE_CURVE('',#146,#144,#81,.T.);
#178=EDGE_CURVE('',#138,#147,#82,.T.);
#179=EDGE_CURVE('',#147,#146,#83,.T.);
#180=EDGE_CURVE('',#148,#148,#122,.T.);
#181=EDGE_CURVE('',#148,#149,#84,.T.);
#182=EDGE_CURVE('',#149,#150,#123,.T.);
#183=EDGE_CURVE('',#150,#149,#124,.T.);
#184=EDGE_CURVE('',#150,#151,#85,.T.);
#185=EDGE_CURVE('',#152,#151,#125,.T.);
#186=EDGE_CURVE('',#151,#152,#126,.T.);
#187=EDGE_CURVE('',#153,#147,#86,.T.);
#188=EDGE_CURVE('',#154,#153,#87,.T.);
#189=EDGE_CURVE('',#145,#154,#88,.T.);
#190=EDGE_CURVE('',#155,#155,#127,.T.);
#191=EDGE_CURVE('',#155,#156,#89,.T.);
#192=EDGE_CURVE('',#156,#157,#128,.T.);
#193=EDGE_CURVE('',#157,#156,#129,.T.);
#194=EDGE_CURVE('',#157,#158,#90,.T.);
#195=EDGE_CURVE('',#159,#158,#130,.T.);
#196=EDGE_CURVE('',#158,#159,#131,.T.);
#197=EDGE_CURVE('',#160,#161,#132,.T.);
#198=EDGE_CURVE('',#161,#160,#133,.T.);
#199=EDGE_CURVE('',#151,#162,#91,.T.);
#200=EDGE_CURVE('',#163,#162,#134,.T.);
#201=EDGE_CURVE('',#162,#163,#135,.T.);
#202=EDGE_CURVE('',#161,#163,#92,.T.);
#203=EDGE_CURVE('',#139,#153,#93,.T.);
#204=EDGE_CURVE('',#143,#154,#94,.T.);
#205=ORIENTED_EDGE('',*,*,#164,.T.);
#206=ORIENTED_EDGE('',*,*,#165,.T.);
#207=ORIENTED_EDGE('',*,*,#166,.F.);
#208=ORIENTED_EDGE('',*,*,#165,.F.);
#209=ORIENTED_EDGE('',*,*,#167,.F.);
#210=ORIENTED_EDGE('',*,*,#168,.F.);
#211=ORIENTED_EDGE('',*,*,#169,.F.);
#212=ORIENTED_EDGE('',*,*,#170,.F.);
#213=ORIENTED_EDGE('',*,*,#171,.F.);
#214=ORIENTED_EDGE('',*,*,#172,.F.);
#215=ORIENTED_EDGE('',*,*,#164,.F.);
#216=ORIENTED_EDGE('',*,*,#170,.T.);
#217=ORIENTED_EDGE('',*,*,#173,.T.);
#218=ORIENTED_EDGE('',*,*,#174,.T.);
#219=ORIENTED_EDGE('',*,*,#175,.F.);
#220=ORIENTED_EDGE('',*,*,#169,.T.);
#221=ORIENTED_EDGE('',*,*,#176,.T.);
#222=ORIENTED_EDGE('',*,*,#177,.T.);
#223=ORIENTED_EDGE('',*,*,#173,.F.);
#224=ORIENTED_EDGE('',*,*,#168,.T.);
#225=ORIENTED_EDGE('',*,*,#178,.T.);
#226=ORIENTED_EDGE('',*,*,#179,.T.);
#227=ORIENTED_EDGE('',*,*,#176,.F.);
#228=ORIENTED_EDGE('',*,*,#180,.T.);
#229=ORIENTED_EDGE('',*,*,#181,.T.);
#230=ORIENTED_EDGE('',*,*,#182,.T.);
#231=ORIENTED_EDGE('',*,*,#183,.T.);
#232=ORIENTED_EDGE('',*,*,#181,.F.);
#233=ORIENTED_EDGE('',*,*,#182,.F.);
#234=ORIENTED_EDGE('',*,*,#183,.F.);
#235=ORIENTED_EDGE('',*,*,#184,.T.);
#236=ORIENTED_EDGE('',*,*,#185,.F.);
#237=ORIENTED_EDGE('',*,*,#186,.F.);
#238=ORIENTED_EDGE('',*,*,#184,.F.);
#239=ORIENTED_EDGE('',*,*,#174,.F.);
#240=ORIENTED_EDGE('',*,*,#177,.F.);
#241=ORIENTED_EDGE('',*,*,#179,.F.);
#242=ORIENTED_EDGE('',*,*,#187,.F.);
#243=ORIENTED_EDGE('',*,*,#188,.F.);
#244=ORIENTED_EDGE('',*,*,#189,.F.);
#245=ORIENTED_EDGE('',*,*,#180,.F.);
#246=ORIENTED_EDGE('',*,*,#190,.T.);
#247=ORIENTED_EDGE('',*,*,#191,.T.);
#248=ORIENTED_EDGE('',*,*,#192,.T.);
#249=ORIENTED_EDGE('',*,*,#193,.T.);
#250=ORIENTED_EDGE('',*,*,#191,.F.);
#251=ORIENTED_EDGE('',*,*,#192,.F.);
#252=ORIENTED_EDGE('',*,*,#193,.F.);
#253=ORIENTED_EDGE('',*,*,#194,.T.);
#254=ORIENTED_EDGE('',*,*,#195,.F.);
#255=ORIENTED_EDGE('',*,*,#196,.F.);
#256=ORIENTED_EDGE('',*,*,#194,.F.);
#257=ORIENTED_EDGE('',*,*,#190,.F.);
#258=ORIENTED_EDGE('',*,*,#197,.T.);
#259=ORIENTED_EDGE('',*,*,#198,.T.);
#260=ORIENTED_EDGE('',*,*,#185,.T.);
#261=ORIENTED_EDGE('',*,*,#199,.T.);
#262=ORIENTED_EDGE('',*,*,#200,.F.);
#263=ORIENTED_EDGE('',*,*,#201,.F.);
#264=ORIENTED_EDGE('',*,*,#199,.F.);
#265=ORIENTED_EDGE('',*,*,#186,.T.);
#266=ORIENTED_EDGE('',*,*,#197,.F.);
#267=ORIENTED_EDGE('',*,*,#198,.F.);
#268=ORIENTED_EDGE('',*,*,#202,.T.);
#269=ORIENTED_EDGE('',*,*,#200,.T.);
#270=ORIENTED_EDGE('',*,*,#201,.T.);
#271=ORIENTED_EDGE('',*,*,#202,.F.);
#272=ORIENTED_EDGE('',*,*,#166,.T.);
#273=ORIENTED_EDGE('',*,*,#195,.T.);
#274=ORIENTED_EDGE('',*,*,#196,.T.);
#275=ORIENTED_EDGE('',*,*,#167,.T.);
#276=ORIENTED_EDGE('',*,*,#203,.T.);
#277=ORIENTED_EDGE('',*,*,#187,.T.);
#278=ORIENTED_EDGE('',*,*,#178,.F.);
#279=ORIENTED_EDGE('',*,*,#172,.T.);
#280=ORIENTED_EDGE('',*,*,#204,.T.);
#281=ORIENTED_EDGE('',*,*,#188,.T.);
#282=ORIENTED_EDGE('',*,*,#203,.F.);
#283=ORIENTED_EDGE('',*,*,#171,.T.);
#284=ORIENTED_EDGE('',*,*,#175,.T.);
#285=ORIENTED_EDGE('',*,*,#189,.T.);
#286=ORIENTED_EDGE('',*,*,#204,.F.);
#287=CYLINDRICAL_SURFACE('',#328,4.4);
#288=CYLINDRICAL_SURFACE('',#339,2.594);
#289=CYLINDRICAL_SURFACE('',#347,3.);
#290=CYLINDRICAL_SURFACE('',#356,1.25);
#291=ADVANCED_FACE('',(#32),#287,.T.);
#292=ADVANCED_FACE('',(#33,#18),#22,.F.);
#293=ADVANCED_FACE('',(#34),#23,.T.);
#294=ADVANCED_FACE('',(#35),#24,.T.);
#295=ADVANCED_FACE('',(#36),#25,.T.);
#296=ADVANCED_FACE('',(#37),#15,.F.);
#297=ADVANCED_FACE('',(#38),#288,.F.);
#298=ADVANCED_FACE('',(#39,#19),#26,.T.);
#299=ADVANCED_FACE('',(#40),#16,.T.);
#300=ADVANCED_FACE('',(#41),#289,.T.);
#301=ADVANCED_FACE('',(#42,#20),#27,.F.);
#302=ADVANCED_FACE('',(#43),#17,.F.);
#303=ADVANCED_FACE('',(#44),#290,.F.);
#304=ADVANCED_FACE('',(#45,#21),#28,.F.);
#305=ADVANCED_FACE('',(#46),#29,.T.);
#306=ADVANCED_FACE('',(#47),#30,.T.);
#307=ADVANCED_FACE('',(#48),#31,.T.);
#308=CLOSED_SHELL('',(#291,#292,#293,#294,#295,#296,#297,#298,#299,#300,
#301,#302,#303,#304,#305,#306,#307));
#309=DERIVED_UNIT_ELEMENT(#311,1.);
#310=DERIVED_UNIT_ELEMENT(#546,3.);
#311=(
MASS_UNIT()
NAMED_UNIT(*)
SI_UNIT($,.GRAM.)
);
#312=DERIVED_UNIT((#309,#310));
#313=MEASURE_REPRESENTATION_ITEM('density measure',
POSITIVE_RATIO_MEASURE(8.08),#312);
#314=PROPERTY_DEFINITION_REPRESENTATION(#319,#316);
#315=PROPERTY_DEFINITION_REPRESENTATION(#320,#317);
#316=REPRESENTATION('material name',(#318),#543);
#317=REPRESENTATION('density',(#313),#543);
#318=DESCRIPTIVE_REPRESENTATION_ITEM('Edelstahl','Edelstahl');
#319=PROPERTY_DEFINITION('material property','material name',#553);
#320=PROPERTY_DEFINITION('material property','density of part',#553);
#321=DATE_TIME_ROLE('creation_date');
#322=APPLIED_DATE_AND_TIME_ASSIGNMENT(#323,#321,(#553));
#323=DATE_AND_TIME(#324,#325);
#324=CALENDAR_DATE(2009,26,6);
#325=LOCAL_TIME(6,4,45.,#326);
#326=COORDINATED_UNIVERSAL_TIME_OFFSET(0,0,.BEHIND.);
#327=AXIS2_PLACEMENT_3D('placement',#454,#361,#362);
#328=AXIS2_PLACEMENT_3D('',#455,#363,#364);
#329=AXIS2_PLACEMENT_3D('',#457,#365,#366);
#330=AXIS2_PLACEMENT_3D('',#460,#368,#369);
#331=AXIS2_PLACEMENT_3D('',#461,#370,#371);
#332=AXIS2_PLACEMENT_3D('',#474,#378,#379);
#333=AXIS2_PLACEMENT_3D('',#480,#383,#384);
#334=AXIS2_PLACEMENT_3D('',#484,#387,#388);
#335=AXIS2_PLACEMENT_3D('',#488,#391,#392);
#336=AXIS2_PLACEMENT_3D('',#490,#393,#394);
#337=AXIS2_PLACEMENT_3D('',#494,#396,#397);
#338=AXIS2_PLACEMENT_3D('',#495,#398,#399);
#339=AXIS2_PLACEMENT_3D('',#496,#400,#401);
#340=AXIS2_PLACEMENT_3D('',#500,#403,#404);
#341=AXIS2_PLACEMENT_3D('',#501,#405,#406);
#342=AXIS2_PLACEMENT_3D('',#502,#407,#408);
#343=AXIS2_PLACEMENT_3D('',#508,#412,#413);
#344=AXIS2_PLACEMENT_3D('',#510,#414,#415);
#345=AXIS2_PLACEMENT_3D('',#514,#417,#418);
#346=AXIS2_PLACEMENT_3D('',#515,#419,#420);
#347=AXIS2_PLACEMENT_3D('',#516,#421,#422);
#348=AXIS2_PLACEMENT_3D('',#520,#424,#425);
#349=AXIS2_PLACEMENT_3D('',#521,#426,#427);
#350=AXIS2_PLACEMENT_3D('',#522,#428,#429);
#351=AXIS2_PLACEMENT_3D('',#525,#430,#431);
#352=AXIS2_PLACEMENT_3D('',#526,#432,#433);
#353=AXIS2_PLACEMENT_3D('',#527,#434,#435);
#354=AXIS2_PLACEMENT_3D('',#531,#437,#438);
#355=AXIS2_PLACEMENT_3D('',#532,#439,#440);
#356=AXIS2_PLACEMENT_3D('',#533,#441,#442);
#357=AXIS2_PLACEMENT_3D('',#535,#444,#445);
#358=AXIS2_PLACEMENT_3D('',#536,#446,#447);
#359=AXIS2_PLACEMENT_3D('',#538,#449,#450);
#360=AXIS2_PLACEMENT_3D('',#540,#452,#453);
#361=DIRECTION('axis',(0.,0.,1.));
#362=DIRECTION('refdir',(1.,0.,0.));
#363=DIRECTION('center_axis',(0.,0.,1.));
#364=DIRECTION('ref_axis',(1.,-2.13662520709285E-16,0.));
#365=DIRECTION('center_axis',(0.,0.,-1.));
#366=DIRECTION('ref_axis',(1.,-2.13662520709285E-16,0.));
#367=DIRECTION('',(0.,0.,-1.));
#368=DIRECTION('center_axis',(0.,0.,-1.));
#369=DIRECTION('ref_axis',(1.,-2.13662520709285E-16,0.));
#370=DIRECTION('center_axis',(0.,0.,1.));
#371=DIRECTION('ref_axis',(1.,0.,0.));
#372=DIRECTION('',(-2.13662520709285E-16,-1.,0.));
#373=DIRECTION('',(-0.866025403784439,-0.5,0.));
#374=DIRECTION('',(-0.866025403784439,0.5,0.));
#375=DIRECTION('',(2.13662520709285E-16,1.,0.));
#376=DIRECTION('',(0.866025403784439,0.5,0.));
#377=DIRECTION('',(0.866025403784438,-0.5,0.));
#378=DIRECTION('center_axis',(1.,-2.13662520709285E-16,0.));
#379=DIRECTION('ref_axis',(0.,0.,-1.));
#380=DIRECTION('',(0.,0.,1.));
#381=DIRECTION('',(-2.13662520709285E-16,-1.,0.));
#382=DIRECTION('',(0.,0.,1.));
#383=DIRECTION('center_axis',(0.5,0.866025403784439,0.));
#384=DIRECTION('ref_axis',(0.,0.,-1.));
#385=DIRECTION('',(0.,0.,1.));
#386=DIRECTION('',(0.866025403784439,-0.5,0.));
#387=DIRECTION('center_axis',(-0.5,0.866025403784439,0.));
#388=DIRECTION('ref_axis',(0.,0.,1.));
#389=DIRECTION('',(0.,0.,1.));
#390=DIRECTION('',(0.866025403784439,0.5,0.));
#391=DIRECTION('center_axis',(0.,0.,1.));
#392=DIRECTION('ref_axis',(-1.,0.,0.));
#393=DIRECTION('center_axis',(0.,0.,1.));
#394=DIRECTION('ref_axis',(-1.,0.,0.));
#395=DIRECTION('',(-0.707106781186547,-8.65956056235493E-17,-0.707106781186548));
#396=DIRECTION('center_axis',(0.,0.,-1.));
#397=DIRECTION('ref_axis',(-1.,0.,0.));
#398=DIRECTION('center_axis',(0.,0.,-1.));
#399=DIRECTION('ref_axis',(-1.,0.,0.));
#400=DIRECTION('center_axis',(0.,0.,1.));
#401=DIRECTION('ref_axis',(1.,0.,0.));
#402=DIRECTION('',(0.,0.,-1.));
#403=DIRECTION('center_axis',(0.,0.,1.));
#404=DIRECTION('ref_axis',(1.,0.,0.));
#405=DIRECTION('center_axis',(0.,0.,1.));
#406=DIRECTION('ref_axis',(1.,0.,0.));
#407=DIRECTION('center_axis',(0.,0.,1.));
#408=DIRECTION('ref_axis',(1.,0.,0.));
#409=DIRECTION('',(2.13662520709285E-16,1.,0.));
#410=DIRECTION('',(-0.866025403784438,0.5,0.));
#411=DIRECTION('',(-0.866025403784439,-0.5,0.));
#412=DIRECTION('center_axis',(0.,0.,1.));
#413=DIRECTION('ref_axis',(1.,0.,0.));
#414=DIRECTION('center_axis',(0.,0.,1.));
#415=DIRECTION('ref_axis',(1.,0.,0.));
#416=DIRECTION('',(-0.707106781186548,8.65956056235494E-17,0.707106781186548));
#417=DIRECTION('center_axis',(0.,0.,-1.));
#418=DIRECTION('ref_axis',(1.,0.,0.));
#419=DIRECTION('center_axis',(0.,0.,-1.));
#420=DIRECTION('ref_axis',(1.,0.,0.));
#421=DIRECTION('center_axis',(0.,0.,1.));
#422=DIRECTION('ref_axis',(-1.,0.,0.));
#423=DIRECTION('',(0.,0.,1.));
#424=DIRECTION('center_axis',(0.,0.,1.));
#425=DIRECTION('ref_axis',(-1.,0.,0.));
#426=DIRECTION('center_axis',(0.,0.,1.));
#427=DIRECTION('ref_axis',(-1.,0.,0.));
#428=DIRECTION('center_axis',(0.,0.,1.));
#429=DIRECTION('ref_axis',(1.,0.,0.));
#430=DIRECTION('center_axis',(0.,0.,1.));
#431=DIRECTION('ref_axis',(-1.,0.,0.));
#432=DIRECTION('center_axis',(0.,0.,1.));
#433=DIRECTION('ref_axis',(-1.,0.,0.));
#434=DIRECTION('center_axis',(0.,0.,1.));
#435=DIRECTION('ref_axis',(1.,0.,0.));
#436=DIRECTION('',(0.857167300702112,1.04972719113862E-16,-0.515038074910054));
#437=DIRECTION('center_axis',(0.,0.,1.));
#438=DIRECTION('ref_axis',(-1.,0.,0.));
#439=DIRECTION('center_axis',(0.,0.,1.));
#440=DIRECTION('ref_axis',(-1.,0.,0.));
#441=DIRECTION('center_axis',(0.,0.,-1.));
#442=DIRECTION('ref_axis',(-1.,0.,0.));
#443=DIRECTION('',(0.,0.,1.));
#444=DIRECTION('center_axis',(0.,0.,1.));
#445=DIRECTION('ref_axis',(1.,0.,0.));
#446=DIRECTION('center_axis',(-1.,2.13662520709285E-16,0.));
#447=DIRECTION('ref_axis',(0.,0.,1.));
#448=DIRECTION('',(0.,0.,1.));
#449=DIRECTION('center_axis',(-0.5,-0.866025403784438,0.));
#450=DIRECTION('ref_axis',(0.,0.,1.));
#451=DIRECTION('',(0.,0.,1.));
#452=DIRECTION('center_axis',(0.5,-0.866025403784439,0.));
#453=DIRECTION('ref_axis',(0.,0.,-1.));
#454=CARTESIAN_POINT('',(0.,0.,0.));
#455=CARTESIAN_POINT('Origin',(0.,0.,8.));
#456=CARTESIAN_POINT('',(-4.4,1.47895968274569E-15,10.));
#457=CARTESIAN_POINT('Origin',(0.,0.,10.));
#458=CARTESIAN_POINT('',(-4.4,1.47895968274569E-15,8.));
#459=CARTESIAN_POINT('',(-4.4,4.01270499496018E-16,8.));
#460=CARTESIAN_POINT('Origin',(0.,0.,8.));
#461=CARTESIAN_POINT('Origin',(8.16689108030147E-16,-1.2335811384724E-16,
10.));
#462=CARTESIAN_POINT('',(-4.5,2.59807621135332,10.));
#463=CARTESIAN_POINT('',(-4.5,-2.59807621135331,10.));
#464=CARTESIAN_POINT('',(-4.5,-1.29903810567666,10.));
#465=CARTESIAN_POINT('',(2.77555756156289E-16,5.19615242270663,10.));
#466=CARTESIAN_POINT('',(-3.375,3.24759526419165,10.));
#467=CARTESIAN_POINT('',(4.5,2.59807621135332,10.));
#468=CARTESIAN_POINT('',(1.125,4.5466333698683,10.));
#469=CARTESIAN_POINT('',(4.5,-2.59807621135332,10.));
#470=CARTESIAN_POINT('',(4.5,-1.23630911891023E-15,10.));
#471=CARTESIAN_POINT('',(-2.47873834539817E-15,-5.19615242270663,10.));
#472=CARTESIAN_POINT('',(3.375,-3.24759526419165,10.));
#473=CARTESIAN_POINT('',(-1.125,-4.5466333698683,10.));
#474=CARTESIAN_POINT('Origin',(4.5,-1.38777878078145E-15,0.));
#475=CARTESIAN_POINT('',(4.5,2.59807621135332,22.));
#476=CARTESIAN_POINT('',(4.5,2.59807621135332,0.));
#477=CARTESIAN_POINT('',(4.5,-2.59807621135332,22.));
#478=CARTESIAN_POINT('',(4.5,-2.59807621135332,22.));
#479=CARTESIAN_POINT('',(4.5,-2.59807621135332,0.));
#480=CARTESIAN_POINT('Origin',(2.77555756156289E-16,5.19615242270663,0.));
#481=CARTESIAN_POINT('',(2.77555756156289E-16,5.19615242270663,22.));
#482=CARTESIAN_POINT('',(2.77555756156289E-16,5.19615242270663,0.));
#483=CARTESIAN_POINT('',(4.5,2.59807621135332,22.));
#484=CARTESIAN_POINT('Origin',(-4.5,2.59807621135332,0.));
#485=CARTESIAN_POINT('',(-4.5,2.59807621135332,22.));
#486=CARTESIAN_POINT('',(-4.5,2.59807621135332,0.));
#487=CARTESIAN_POINT('',(0.,5.19615242270663,22.));
#488=CARTESIAN_POINT('Origin',(0.,0.,21.7));
#489=CARTESIAN_POINT('',(3.194,3.91152187647665E-16,22.));
#490=CARTESIAN_POINT('Origin',(0.,0.,22.));
#491=CARTESIAN_POINT('',(2.594,-3.17673379698823E-16,21.4));
#492=CARTESIAN_POINT('',(2.894,3.54412783673244E-16,21.7));
#493=CARTESIAN_POINT('',(-2.594,-3.17673379698823E-16,21.4));
#494=CARTESIAN_POINT('Origin',(0.,0.,21.4));
#495=CARTESIAN_POINT('Origin',(0.,0.,21.4));
#496=CARTESIAN_POINT('Origin',(0.,0.,18.));
#497=CARTESIAN_POINT('',(-2.594,-3.17673379698823E-16,14.));
#498=CARTESIAN_POINT('',(-2.594,-3.17673379698823E-16,18.));
#499=CARTESIAN_POINT('',(2.594,0.,14.));
#500=CARTESIAN_POINT('Origin',(0.,0.,14.));
#501=CARTESIAN_POINT('Origin',(0.,0.,14.));
#502=CARTESIAN_POINT('Origin',(-1.38777878078145E-16,-4.5102810375397E-16,
22.));
#503=CARTESIAN_POINT('',(-4.5,-2.59807621135331,22.));
#504=CARTESIAN_POINT('',(-4.5,2.59807621135332,22.));
#505=CARTESIAN_POINT('',(-2.47873834539817E-15,-5.19615242270663,22.));
#506=CARTESIAN_POINT('',(-4.5,-2.59807621135331,22.));
#507=CARTESIAN_POINT('',(-2.22044604925031E-15,-5.19615242270663,22.));
#508=CARTESIAN_POINT('Origin',(0.,0.,0.3));
#509=CARTESIAN_POINT('',(-2.4,-2.93915231795365E-16,0.));
#510=CARTESIAN_POINT('Origin',(0.,0.,0.));
#511=CARTESIAN_POINT('',(-3.,3.67394039744206E-16,0.6));
#512=CARTESIAN_POINT('',(-2.7,3.30654635769785E-16,0.3));
#513=CARTESIAN_POINT('',(3.,3.67394039744206E-16,0.6));
#514=CARTESIAN_POINT('Origin',(0.,0.,0.6));
#515=CARTESIAN_POINT('Origin',(0.,0.,0.6));
#516=CARTESIAN_POINT('Origin',(0.,0.,4.));
#517=CARTESIAN_POINT('',(3.,3.67394039744206E-16,8.));
#518=CARTESIAN_POINT('',(3.,3.67394039744206E-16,4.));
#519=CARTESIAN_POINT('',(-3.,0.,8.));
#520=CARTESIAN_POINT('Origin',(0.,0.,8.));
#521=CARTESIAN_POINT('Origin',(0.,0.,8.));
#522=CARTESIAN_POINT('Origin',(-3.46944695195361E-16,-6.93889390390723E-16,
0.));
#523=CARTESIAN_POINT('',(-1.25,0.,0.));
#524=CARTESIAN_POINT('',(1.25,-1.53080849893419E-16,0.));
#525=CARTESIAN_POINT('Origin',(0.,0.,0.));
#526=CARTESIAN_POINT('Origin',(0.,0.,0.));
#527=CARTESIAN_POINT('Origin',(0.,0.,13.2206837771213));
#528=CARTESIAN_POINT('',(-1.25,-1.53080849893419E-16,13.192443328027));
#529=CARTESIAN_POINT('',(-1.297,-1.58836689849412E-16,13.2206837771213));
#530=CARTESIAN_POINT('',(1.25,1.53080849893419E-16,13.192443328027));
#531=CARTESIAN_POINT('Origin',(0.,0.,13.192443328027));
#532=CARTESIAN_POINT('Origin',(0.,0.,13.192443328027));
#533=CARTESIAN_POINT('Origin',(0.,0.,25.));
#534=CARTESIAN_POINT('',(1.25,-1.53080849893419E-16,25.));
#535=CARTESIAN_POINT('Origin',(-4.99380944213119,0.,8.));
#536=CARTESIAN_POINT('Origin',(-4.5,-2.59807621135331,0.));
#537=CARTESIAN_POINT('',(-4.5,-2.59807621135331,0.));
#538=CARTESIAN_POINT('Origin',(-2.47873834539817E-15,-5.19615242270663,
0.));
#539=CARTESIAN_POINT('',(-2.47873834539817E-15,-5.19615242270663,0.));
#540=CARTESIAN_POINT('Origin',(4.5,-2.59807621135332,0.));
#541=UNCERTAINTY_MEASURE_WITH_UNIT(LENGTH_MEASURE(0.01),#545,
'DISTANCE_ACCURACY_VALUE',
'Maximum model space distance between geometric entities at asserted c
onnectivities');
#542=UNCERTAINTY_MEASURE_WITH_UNIT(LENGTH_MEASURE(0.01),#545,
'DISTANCE_ACCURACY_VALUE',
'Maximum model space distance between geometric entities at asserted c
onnectivities');
#543=(
GEOMETRIC_REPRESENTATION_CONTEXT(3)
GLOBAL_UNCERTAINTY_ASSIGNED_CONTEXT((#541))
GLOBAL_UNIT_ASSIGNED_CONTEXT((#545,#547,#548))
REPRESENTATION_CONTEXT('','3D')
);
#544=(
GEOMETRIC_REPRESENTATION_CONTEXT(3)
GLOBAL_UNCERTAINTY_ASSIGNED_CONTEXT((#542))
GLOBAL_UNIT_ASSIGNED_CONTEXT((#545,#547,#548))
REPRESENTATION_CONTEXT('','3D')
);
#545=(
LENGTH_UNIT()
NAMED_UNIT(*)
SI_UNIT(.MILLI.,.METRE.)
);
#546=(
LENGTH_UNIT()
NAMED_UNIT(*)
SI_UNIT(.CENTI.,.METRE.)
);
#547=(
NAMED_UNIT(*)
PLANE_ANGLE_UNIT()
SI_UNIT($,.RADIAN.)
);
#548=(
NAMED_UNIT(*)
SI_UNIT($,.STERADIAN.)
SOLID_ANGLE_UNIT()
);
#549=SHAPE_DEFINITION_REPRESENTATION(#550,#551);
#550=PRODUCT_DEFINITION_SHAPE('',$,#553);
#551=SHAPE_REPRESENTATION('',(#327),#543);
#552=PRODUCT_DEFINITION_CONTEXT('part definition',#557,'design');
#553=PRODUCT_DEFINITION('anver14a','anver14a',#554,#552);
#554=PRODUCT_DEFINITION_FORMATION('',$,#559);
#555=PRODUCT_RELATED_PRODUCT_CATEGORY('anver14a','anver14a',(#559));
#556=APPLICATION_PROTOCOL_DEFINITION('international standard',
'automotive_design',2009,#557);
#557=APPLICATION_CONTEXT(
'Core Data for Automotive Mechanical Design Process');
#558=PRODUCT_CONTEXT('part definition',#557,'mechanical');
#559=PRODUCT('anver14a','anver14a',$,(#558));
#560=PRESENTATION_STYLE_ASSIGNMENT((#561));
#561=SURFACE_STYLE_USAGE(.BOTH.,#564);
#562=SURFACE_STYLE_RENDERING_WITH_PROPERTIES($,#568,(#563));
#563=SURFACE_STYLE_TRANSPARENT(0.);
#564=SURFACE_SIDE_STYLE('',(#565,#562));
#565=SURFACE_STYLE_FILL_AREA(#566);
#566=FILL_AREA_STYLE('',(#567));
#567=FILL_AREA_STYLE_COLOUR('',#568);
#568=COLOUR_RGB('',0.745098039215686,0.737254901960784,0.729411764705882);
ENDSEC;
END-ISO-10303-21;
